Guitar Tabs, Chords and Lyrics
Major upgrade!! After one year development the new version of Chordie is now online! Please give feedback.


Ladies in Waiting   KISS

 
 Eb|--------------------------------------------------------|
 Bb|--------------------------------------------------------|
 Gb|--9-----------------------------------------------------|
 Db|--9----------4----5--------7-----5--7--7----------------|
 Ab|--7----------2----3-----3--3--3--3--5--5----------------|
 Eb|--------------------------------------------------------|

 


 


 


 Rhythm Fig. 2a


 

 
 Eb|--------------------------------------------------------|
 Bb|--------------------------------------------------------|
 Gb|--------------------------------------------------------|
 Db|--9-------11-----9--4----5-------7-----5--7--7----------|
 Ab|--7----7--7---7--7--2----3----3--3--3--3--5--5----------|
 Eb|--------------------------------------------------------|

 


 


 


 Rhythm Fig. 2b


 

 
 Eb|--------------------------------------------------------|
 Bb|-------------------------5-------6p-5--5--7--7----------|
 Gb|--9-------11p-9--9--4----5----5--7p-5--5--7--7----------|
 Db|--9----9--11p-9--9--4----5-------5-----5--7--7----------|
 Ab|--------------------------------------------------------|
 Eb|--------------------------------------------------------|

 


 


 


 Rhythm Fig. 2c


 

 
 Eb|--------------------------------------------------------|
 Bb|--------------------------------------------------------|
 Gb|--9----------4----5----------------7--7-----------------|
 Db|--9----------4----5----------------7--7-----------------|
 Ab|--7----------2----3----------------5--5-----------------|
 Eb|--------------------------------------------------------|

 


 


 


 Rhythm Fig. 3a


 

 
 Eb|--------------------------------------------------------|
 Bb|--------------------------------------------------------|
 Gb|--------------------------------------------------------|
 Db|--9-------11-----9--4----5----5----7----7---------------|
 Ab|--7----7--7---7--7--2----3----3----5----5---------------|
 Eb|--------------------------------------------------------|
 Eb|--------------------------------------------------------|
 Bb|--2-----------3----------2------------------------------|
 Gb|--2----------------2-----2--------------7--7------------|
 Db|--2----2--2h4---------4--2--------------7--7------------|
 Ab|--0----------------------0--------------5--5------------|
 Eb|--------------------------------------------------------|
 Let ring - - - - - - > 1st time only

 


 


 


 


 Rhythm Fig. 3b


 

 
 Eb|--------------------------------------------------------|
 Bb|-------------------------5----5----7----7---------------|
 Gb|--9-------11p-9--9--4----5----5----7----7---------------|
 Db|--9----9--11p-9--9--4----5----5----7----7---------------|
 Ab|--------------------------------------------------------|
 Eb|--------------------------------------------------------|
 Eb|--------------------------------------------------------|
 Bb|--2-----------3----------2------------------------------|
 Gb|--2----------------2-----2--------------7--7------------|
 Db|--2----2--2h4---------4--2--------------7--7------------|
 Ab|--0----------------------0--------------5--5------------|
 Eb|--------------------------------------------------------|
 Let ring - - - - - - > 1st time only

 


 


 


 Rhythm Fig. 3c


 

 
 Eb|--------------------------------------------------------|
 Bb|--------------------------------------------------------|
 Gb|--9----------4----5----5----7----7----------------------|
 Db|--9----------4----5----5----7----7----------------------|
 Ab|--7----------2----3----3----5----5----------------------|
 Eb|--------------------------------------------------------|
 Eb|--------------------------------------------------------|
 Bb|--------------------------------------------------------|
 Gb|--2--------------------------------7--7-----------------|
 Db|--2--------------------------------7--7-----------------|
 Ab|--0--------------------------------5--5-----------------|
 Eb|--------------------------------------------------------|

 


 1st time only


 


 Rhythm Fig. 4a


 

 
 Eb|--------------------------------------------------------|
 Bb|--------------------------------------------------------|
 Gb|--------------------------------------------------------|
 Db|--3--3--3--3--3--3--3--3--5--5--5--5--5--5--5--5--------|
 Ab|--3--3--3--3--3--3--3--3--5--5--5--5--5--5--5--5--------|
 Eb|--1--1--1--1--1--1--1--1--3--3--3--3--3--3--3--3--------|
 Eb|--------------------------------------------------------|
 Bb|--------------------------------------------------------|
 Gb|--8--8--8--8--8--8--8--8--10\---------------------------|
 Db|--8--8--8--8--8--8--8--8--10\---------------------------|
 Ab|--6--6--6--6--6--6--6--6--8\----------------------------|
 Eb|--------------------------------------------------------|

 


 


 


 Rhythm Fig. 4b


 

 
 Eb|--------------------------------------------------------|
 Bb|--------------------------------------------------------|
 Gb|---------------------8---------10\----------------------|
 Db|--3--------5---------8---------10\----------------------|
 Ab|--3--------5---------6---------8\-----------------------|
 Eb|--1--------3--------------------------------------------|

 


 


 Rhythm Fig. 5a


 

 
 Eb|--------------------------------------------------------|
 Bb|--------------------------------------------------------|
 Gb|--------------------------------------------------------|
 Db|--12------14------12--12--------------------------------|
 Ab|--10--10--10--10--10--10---12-------14------12--10--10--|
 Eb|---------------------------10---10--10--10--10--8---8---|
 < - - - - - - - - - - - 2x - - - - - - - - - - - - - >
 Eb|--------------------------------------------------------|
 Bb|-------------------------------------------8------------|
 Gb|-------------------------------------------9------------|
 Db|-------------------------------------------10-----------|
 Ab|--8-----10-----8--8----10-------12-----10--10-----------|
 Eb|--6--6--6---6--6--6----8-----8--8---8--8----------------|
 Eb|--------------------------------------------------------|
 Bb|--------------------------------------------------------|
 Gb|--------------------------------------------------------|
 Db|--10------------------7--7------------------------------|
 Ab|--10------------------5--5------------------------------|
 Eb|--8-----------------------------------------------------|

 


 


 


 Rhythm Fig. 5b


 

 
 Eb|--------------------------------------------------------|
 Bb|--------------------------------------------------------|
 Gb|-----------------7----------------5--5------------------|
 Db|--5--------------7----------------5--5------------------|
 Ab|--5--------------5----------------3--3------------------|
 Eb|--3-----------------------------------------------------|
 < - - - - - - - - - - - 2x - - - - - - - - - - - - - >
 Eb|--------------------------------------------------------|
 Bb|--------------------------------------------------------|
 Gb|--3--------------5------------------7--7----------------|
 Db|--3--------------5------------------7--7----------------|
 Ab|--1--------------3------------------5--5----------------|
 Eb|--------------------------------------------------------|

 


 


 


 Rhythm Fig. 5c


 

 
 Eb|--------------------------------------------------------|
 Bb|--12----12--13----12------7----7--8--7----5--5----------|
 Gb|--12----12--12----12------7----7--9--7----5--5----------|
 Db|--12----12--14----12------7----7--7--7----5--5----------|
 Ab|--------------------------------------------------------|
 Eb|--------------------------------------------------------|
 < - - - - - - - - - - - 2x - - - - - - - - - - - - - >
 Eb|--------------------------------------------------------|
 Bb|--3----3--4--3------5----------------7--7---------------|
 Gb|--3----3--5--3------5----------------7--7---------------|
 Db|--3----3--3--3------5----------------7--7---------------|
 Ab|--------------------------------------------------------|
 Eb|--------------------------------------------------------|

 


 


 


 Rhythm Fig. 6a


 

 
 Eb|--------------------------------------------------------|
 Bb|--------------------------------------------------------|
 Gb|--------------------------------------------------------|
 Db|--12------14------12--12--------------------------------|
 Ab|--10--10--10--10--10--10---12-------14------12--10--10--|
 Eb|---------------------------10---10--10--10--10--8---8---|
 < - - - - - - - - - - - 2x - - - - - - - - - - - - - >
 Eb|--------------------------------------------------------|
 Bb|--------------------------------------------------------|
 Gb|--------------------------------------------------------|
 Db|-------------------------------------------10--10-------|
 Ab|--8-----10-----8--8----10-------12-----10--8---8--------|
 Eb|--6--6--6---6--6--6----8-----8--8---8--8----------------|

 


 


 


 Rhythm Fig. 6b


 

 
 Eb|----------------------------------------------------------|
 Bb|----------------------------------------------------------|
 Gb|-----------------7----------------5--5--------------------|
 Db|--5--------------7----------------5--5--------------------|
 Ab|--5--------------5----------------3--3--------------------|
 Eb|--3-------------------------------------------------------|
 < - - - - - - - - - - - 2x - - - - - - - - - - - - - >
 Eb|--------------------------------------------------------|
 Bb|--------------------------------------------------------|
 Gb|--3--------------5--------------------------------------|
 Db|--3--------------5----------------3--3------------------|
 Ab|--1--------------3----------------3--3------------------|
 Eb|----------------------------------1--1------------------|

 


 


 


 Rhythm Fig. 6c


 

 
 Eb|--------------------------------------------------------|
 Bb|--12----12--13----12------7----7--8--7----5--5----------|
 Gb|--12----12--12----12------7----7--9--7----5--5----------|
 Db|--12----12--14----12------7----7--7--7----5--5----------|
 Ab|--------------------------------------------------------|
 Eb|--------------------------------------------------------|
 < - - - - - - - - - - - 2x - - - - - - - - - - - - - >
 Eb|--------------------------------------------------------|
 Bb|--3----3--4--3------5---------------10--10--------------|
 Gb|--3----3--5--3------5---------------10--10--------------|
 Db|--3----3--3--3------5---------------10--10--------------|
 Ab|--------------------------------------------------------|
 Eb|--------------------------------------------------------|

 


 


 


 Riff 1


 

 
 Eb|---------10---------------------------------------------|
 Bb|---------------10---------------------------------------|
 Gb|------9------------9------------------------------------|
 Db|--------------------------------------------------------|
 Ab|--------------------------------------------------------|
 Eb|--------------------------------------------------------|

 


 Let ring - >


 


 Riff 2


 

 
 Eb|------------------10--------------8---------------------|
 Bb|--8---------------13b-------------11b-------------------|
 Gb|--10b---------------------------------------------------|
 Db|--------------------------------------------------------|
 Ab|--------------------------------------------------------|
 Eb|--------------------------------------------------------|
 < - - - - - - - - - 2x - - - - - - - - - - >
 Eb|--6--------------8--------------------------------------|
 Bb|--9b-------------11b-------------6----------------------|
 Gb|---------------------------------8b---------------------|
 Db|--------------------------------------------------------|
 Ab|--------------------------------------------------------|
 Eb|--------------------------------------------------------|

 


 


 


 Riff 3 (Let ring)


 

 
 Eb|--19p15----19p15----19p15----19p15----19p15-------------|
 Bb|--------15-------15-------15-------15-------15----------|
 Gb|--------------------------------------------------------|
 Db|--------------------------------------------------------|
 Ab|--------------------------------------------------------|
 Eb|--------------------------------------------------------|
 < - - - - - - - - - - - - - - - - - - - - 2x - - - - -
 Eb|--17p14----17p14----17\15----15p12----15p12-------------|
 Bb|--------15-------15-------13-------13-------13----------|
 Gb|--------------------------------------------------------|
 Db|--------------------------------------------------------|
 Ab|--------------------------------------------------------|
 Eb|--------------------------------------------------------|
 - - - - - - - - - - - - - - - - - - - - - - - - - >
 Eb|--13p10----10h13p10----10h13p10----10h13p10-------------|
 Bb|--------11----------11----------11----------11----------|
 Gb|--------------------------------------------------------|
 Db|--------------------------------------------------------|
 Ab|--------------------------------------------------------|
 Eb|--------------------------------------------------------|
 Eb|--15p12----12h15p12----12h15p12----12h15p12-------------|
 Bb|--------13----------13----------13----------13----------|
 Gb|--------------------------------------------------------|
 Db|--------------------------------------------------------|
 Ab|--------------------------------------------------------|
 Eb|--------------------------------------------------------|

 


 


 


 


 


 Solo


 


 

 
 Eb|--15p12----15p12----15p12----15p12----15p12----15p12----15p12-----|
 Bb|--------12-------12-------12-------12-------12-------12-------12--|
 Gb|------------------------------------------------------------------|
 Db|------------------------------------------------------------------|
 Ab|------------------------------------------------------------------|
 Eb|------------------------------------------------------------------|

 


 | |


 | |


 | |


 | |


 

 
 Eb|------------------------------------------------------------------|
 Bb|--17-------------------------12-------13------------------15------|
 Gb|--19b------------------------14b------15b-----------------17b-----|
 Db|------------------------------------------------------------------|
 Ab|------------------------------------------------------------------|
 Eb|------------------------------------------------------------------|
 Eb|--15p12----15p12----15p12----15p12----15p12----15p12----15p12-----|
 Bb|--------12-------12-------12-------12-------12-------12-------12--|
 Gb|------------------------------------------------------------------|
 Db|------------------------------------------------------------------|
 Ab|------------------------------------------------------------------|
 Eb|------------------------------------------------------------------|

 


 | |


 | |


 | |


 | |


 


 

 
 Eb|-----------------------------14-------15--------------------------|
 Bb|--17-------------------------17b------18b-------------------------|
 Gb|--19b-------------------------------------------------------------|
 Db|------------------------------------------------------------------|
 Ab|------------------------------------------------------------------|
 Eb|------------------------------------------------------------------|
 Eb|--15p12----15p12----15p12----15p12----15p12----15p12----15p12-----|
 Bb|--------12-------12-------12-------12-------12-------12-------12--|
 Gb|------------------------------------------------------------------|
 Db|------------------------------------------------------------------|
 Ab|------------------------------------------------------------------|
 Eb|------------------------------------------------------------------|

 


 | |


 | |


 | |


 | |


 

 
 Eb|------------------------------------------------------------------|
 Bb|--5---------------------------7---------------8-------------------|
 Gb|--7b--------------------------9b--------------10b-----------------|
 Db|------------------------------------------------------------------|
 Ab|------------------------------------------------------------------|
 Eb|------------------------------------------------------------------|
 Eb|------------------------------------------------------------------|
 Bb|--8-----------10----------12----------14----------15--------------|
 Gb|--10b---------12b---------14b---------16b---------17b-------------|
 Db|------------------------------------------------------------------|
 Ab|------------------------------------------------------------------|
 Eb|------------------------------------------------------------------|

 


 | |


 | |


 | |


 | |


 

 
 Eb|------------------------------------------------------------------|
 Bb|--15b----r15--15b---------15b-----r15-15b---------15b-----r15-----|
 Gb|------------------------------------------------------------------|
 Db|------------------------------------------------------------------|
 Ab|------------------------------------------------------------------|
 Eb|------------------------------------------------------------------|
 Eb|------------------------------------------------------------------|
 Bb|--17----17-20-17h20p17-----17--20--17-20b---20b-----------20b-----|
 Gb|--19b------------------19-----------------------------------------|
 Db|------------------------------------------------------------------|
 Ab|------------------------------------------------------------------|
 Eb|------------------------------------------------------------------|

 


 | |


 | |


 | |


 | |


 

 
 Eb|------------------------------------------------------------------|
 Bb|--15b--------------15b------15b-------15b---15b-----------15b-----|
 Gb|------------------------------------------------------------------|
 Db|------------------------------------------------------------------|
 Ab|------------------------------------------------------------------|
 Eb|------------------------------------------------------------------|
 Eb|------------------------------------------------------------------|
 Bb|--r20---20b-------------------------------------------------------|
 Gb|------------------------------------------------------------------|
 Db|------------------------------------------------------------------|
 Ab|------------------------------------------------------------------|
 Eb|------------------------------------------------------------------|

 


 | |


 | |


 | |


 | |


 

 
 Eb|------------------------------------------------------------------|
 Bb|--r15---15b-------------------------------------------------------|
 Gb|------------------------------------------------------------------|
 Db|------------------------------------------------------------------|
 Ab|------------------------------------------------------------------|
 Eb|------------------------------------------------------------------|


Important: The song above is NOT stored on the Chordie server. The original song is hosted at www.guitaretab.com. Chordie works as a search engine and provides on-the-fly formatting. Chordie does not index songs against artists'/composers' will. To remove this song please click here.

This song is displayed as text-only. Transposing and tuning is only available for chordpro-songs.
Rate #2 of 4 versions

Login - add to songbook

SHARE PAGE  



You need to log in to post comments