Guitar Tabs, Chords and Lyrics
Major upgrade!! After one year development the new version of Chordie is now online! Please give feedback.


Suck   Kittie

 
 d|-------------------------|------------------------|
 A|-------------------------|------------------------|
 F|-------------------------|------------------------|
 C|-0-6-0-7-8-0-6-0-6-0-7-8-|-0-6-0-7-8-0------------|
 G|-0-6-0-7-8-0-6-0-6-0-7-8-|-0-6-0-7-8-0-5~~~~~~~~--|
 C|-0-6-0-7-8-0-6-0-6-0-7-8-|-0-6-0-7-8-0------------|
 I--------PM-----------I I---PM----I

 


 


 Guitar2:


 [3]  

 
 d|----------------------------------|
 A|----------------------------------|
 F|----------------------------------|
 C|--------------------------1-1-1-1-|
 G|--------------------------1-1-1-1-|
 C|--------------------------1-1-1-1-|

 


 I--PM--I


 


 Chorus:


 [7] [1]  

 
 d|-------------------------------|---------------------|
 A|-------------------------------|---------------------|
 F|-------------------------------|---------------------|
 C|-0-6-0-7-8-0-6-0-6-0-7-8-8-8-8-|-0-6-0-7-8-0-6-------|
 G|-0-6-0-7-8-0-6-0-6-0-7-8-8-8-8-|-0-6-0-7-8-0-6-------|
 C|-0-6-0-7-8-0-6-0-6-0-7-8-8-8-8-|-0-6-0-7-8-0-6-------|

 


 


 


 Verse: Pre-Chorus:


 


 with effect 2


 

 
 d|-------------|-------------------------------------|
 A|-------------|-------------------------------------|
 F|-9--------12-|-------------------------------------|
 C|-------------|-0-2-0-2--0-0-2--0-0-2--0-2-0-2-0-3--|
 G|-7--------10-|-0-2-0-2--0-0-2--0-0-2--0-2-0-2-0-3--|
 C|-------------|-0-2-0-2--0-0-2--0-0-2--0-2-0-2-0-3--|
 I---PM-----I 

 


 


 Chorus: "...believe me when i say..."


 [7] [1]  

 
 d|-------------------------------|------------------|
 A|-------------------------------|------------------|
 F|-------------------------------|------------------|
 C|-0-6-0-7-8-0-6-0-6-0-7-8-8-8-8-|-0-6-0-7-8-0-6----|
 G|-0-6-0-7-8-0-6-0-6-0-7-8-8-8-8-|-0-6-0-7-8-0-6----|
 C|-0-6-0-7-8-0-6-0-6-0-7-8-8-8-8-|-0-6-0-7-8-0-6----|

 


 


 Verse: Pre-Chorus:


 


 

 
 d|-------------|-------------------------------------|
 A|-------------|-------------------------------------|
 F|-9--------12-|-------------------------------------|
 C|-------------|-0-2-0-2--0-0-2--0-0-2--0-2-0-2-0-3--|
 G|-7--------10-|-0-2-0-2--0-0-2--0-0-2--0-2-0-2-0-3--|
 C|-------------|-0-2-0-2--0-0-2--0-0-2--0-2-0-2-0-3--|
 I---Pm-----I

 


 


 Chorus:


 [7] [1]  

 
 d|-------------------------------|------------------|
 A|-------------------------------|------------------|
 F|-------------------------------|------------------|
 C|-0-6-0-7-8-0-6-0-6-0-7-8-8-8-8-|-0-6-0-7-8-0-6----|
 G|-0-6-0-7-8-0-6-0-6-0-7-8-8-8-8-|-0-6-0-7-8-0-6----|
 C|-0-6-0-7-8-0-6-0-6-0-7-8-8-8-8-|-0-6-0-7-8-0-6----|

 


 


 Outro: "...*** You..."


 8


 

 
 d|---------------------|
 A|---------------------|
 F|---------------------|
 C|-0-0-0-6-0-0-0-0-8-7-|
 G|-0-0-0-6-0-0-0-0-6-5-|
 C|-0-0-0-6-0-0-0-0-----|


Important: The song above is NOT stored on the Chordie server. The original song is hosted at www.guitaretab.com. Chordie works as a search engine and provides on-the-fly formatting. Chordie does not index songs against artists'/composers' will. To remove this song please click here.

This song is displayed as text-only. Transposing and tuning is only available for chordpro-songs.
Rate #0 of 3 versions

Jango Player

Login - add to songbook

SHARE PAGE  



You need to log in to post comments