Guitar Tabs, Chords and Lyrics
Major upgrade!! After one year development the new version of Chordie is now online! Please give feedback.


Lowrider  Korn

Gtr I (A D G C F A D) - 'Head'
Gtr II (A D G C F A D) - 'Monky'
Gtr III (E A D G B E) - 'John'
Intro
Q=142
N.C.
[4/4] Gtr I
 
 PM---------------------------------

Wx4 E E E E E E E E E E E E E E E E
 
 |------------|-----------------|-----------------|
 |------------|-----------------|-----------------|
 |------------|-----------------|---2-----2---2-4-|
 |------------|-----------2---4-|-------4---4-----|
 |------------|-2-2---5---------|-----------------|
 |------------|-----------------|-----------------|
 |------------|-----------------|-----------------|

|
| Gtr II
 
 | PM---------------------------------

| Wx4 E E E E E E E E E E E E E E E E
 
 |------------|-----------------|-----------------|
 |------------|-----------------|-----------------|
 |------------|-----------------|-----------------|
 |------------|-----------------|-----------------|
 |------------|-------0---------|---------0-------|
 |------------|-----------2-----|-----------2-----|
 |------------|-0-0-0-------0-0-|-0-0-0-0-----0-0-|
 ---------------------------------|

[E] [E] [E] [E] [E] [E] [E] [E] [E] [E] [E] [E] [E] [E] [E] [E]  
 
 |-----------------|------------------
 |-----------------|------------------
 |-----------------|---2-----2---2-4--
 |-----------2---4-|-------4---4------
 |-2-2---5---------|------------------
 |-----------------|------------------
 |-----------------|------------------

|
 
 |---------------------------------|

| E E E E E E E E E E E E E E E E
 
 |-----------------|------------------
 |-----------------|------------------
 |-----------------|------------------
 |-----------------|------------------
 |-------0---------|---------0--------
 |-----------2-----|-----------2------
 |-0-0-0-------0-0-|-0-0-0-0-----0-0--

Verse
 
 PM----------------------------------------------

[E] [E] [E] [E] [E] [E] [E] [E] [E] [E] [E] [E] [E] [E] [E] [E]  
 
 |------------------------|------------------------|
 |------------------------|------------------------|
 |------------------------|------2-------2----2--4-|
 |-----------------2----4-|-----------4-----4------|
 |--2--2-----5------------|------------------------|
 |------------------------|------------------------|
 |------------------------|------------------------|

|
 
 | PM---| PM-----| PM----

| E E E E E E E E E E E E E E E E
 
 |------------------------|------------------------|
 |------------------------|------------------------|
 |------------------------|------------------------|
 |------------------------|------------------------|
 |-----------0------------|--------------0---------|
 |-----------------2----2-|-----------------2------|
 |--0--0--0----------0--0-|---0--0-0--0-------0--0-|

|
| Gtr III
| E E E E E Q E +Q. E E Q E
 
 |------------------------|------------------------|
 |------------------------|------------------------|
 |-19-19-19-19-19-20---19-|-(19)-----15-19-20---19-|
 |------------------------|------------------------|
 |------------------------|------------------------|
 |------------------------|------------------------|
 --------------------------------------------|

[E] [E] [E] [E] [E] [E] [E] [E] [E] [E] [E] [E] [E] [E] [E] [E]  
 
 |-------------------------|--------------------|
 |-------------------------|--------------------|
 |-------------------------|------2-----2---2-4-|
 |-------------------2---4-|----------4---4-----|
 |---2---2----5------------|--------------------|
 |-------------------------|--------------------|
 |-------------------------|--------------------|

|
 
 |----------| PM-------------|

| E E E E E E E E E E E E E E E E
 
 |-------------------------|--------------------|
 |-------------------------|--------------------|
 |-------------------------|--------------------|
 |-------------------------|--------------------|
 |------------0------------|--------------------|
 |-------------------2---2-|--------------------|
 |---0---0--0----------0-0-|---0--0-0-0-0-0-0-0-|

|
| +E Q. +H +W
 
 |-------------------------|--------------------|
 |-------------------------|--------------------|
 |-(19)-15------(15)-------|-(15)---------------|
 |-------------------------|--------------------|
 |-------------------------|--------------------|
 |-------------------------|--------------------|
 PM----------------------------------------------

[E] [E] [E] [E] [E] [E] [E] [E] [E] [E] [E] [E] [E] [E] [E] [E]  
 
 |------------------------|------------------------|
 |------------------------|------------------------|
 |------------------------|------2-------2----2--4-|
 |-----------------2----4-|-----------4-----4------|
 |--2--2-----5------------|------------------------|
 |------------------------|------------------------|
 |------------------------|------------------------|

|
 
 | PM---| PM--------|

| E E E E E E E E E E E E E E E E
 
 |------------------------|------------------------|
 |------------------------|------------------------|
 |------------------------|------------------------|
 |------------------------|------------------------|
 |-----------0------------|-----------------0-0----|
 |-----------------2----2-|----------------------2-|
 |--0--0--0---------------|---0--0-0--0--0---------|

|
| E E E E E Q E +Q. E E Q E
 
 |------------------------|------------------------|
 |------------------------|------------------------|
 |-19-19-19-19-19-20---19-|-(19)-----15-19-20---19-|
 |------------------------|------------------------|
 |------------------------|------------------------|
 |------------------------|------------------------|
 --------------------------------------------|

[E] [E] [E] [E] [E] [E] [E] [E] [E] [E] [E] [E] [E] [E] [E] [E]  
 
 |-------------------------|--------------------|
 |-------------------------|--------------------|
 |-------------------------|------2-----2---2-4-|
 |-------------------2---4-|----------4---4-----|
 |---2---2----5------------|--------------------|
 |-------------------------|--------------------|
 |-------------------------|--------------------|

|
| W W
 
 |-------------------------|--------------------|
 |-------------------------|--------------------|
 |-------------------------|--------------------|
 |-------------------------|--------------------|
 |-------------------------|--------------------|
 |-------------------------|--------------------|
 |-------------------------|--------------------|

|
| +E Q. +H +W
 
 |-------------------------|--------------------|
 |-------------------------|--------------------|
 |-(19)-15------(15)-------|-(15)---------------|
 |-------------------------|--------------------|
 |-------------------------|--------------------|
 |-------------------------|--------------------|
 PM-----------------------------------------|

[E] [E] [E] [E] [E] [E] [E] [E] [E] [E] [E] [E] [E] [E] [E] [E]  
 
 |-----------------------|-----------------------|
 |-----------------------|-----------------------|
 |-----------------------|-----2--------2----2-4-|
 |----------------2----4-|-----------4----4------|
 |--2--2-----5-----------|-----------------------|
 |-----------------------|-----------------------|
 |-----------------------|-----------------------|

|
 
 | PM-----------------------------------------|

| E E E E E E E E E E E E E E E E
 
 |-----------------------|-----------------------|
 |-----------------------|-----------------------|
 |-----------------------|-----------------------|
 |-----------------------|-----------------------|
 |-----------------------|-----------------------|
 |-----------------------|-----------------------|
 |--0--0--0--0--0-0--0-0-|--0--0--0--0--0-0--0-0-|

|
| E E E E Q Q E E E E Q Q
 
 |-----------------------|-----------------------|
 |-----------------------|-----------------------|
 |-14-14-14-14-14---14---|-14-14-14-14-14---14---|
 |-----------------------|-----------------------|
 |-----------------------|-----------------------|
 |-----------------------|-----------------------|

W W
 
 |-----------------------|--------------------|
 |-----------------------|--------------------|
 |-----------------------|--------------------|
 |-----------------------|--------------------|
 |-----------------------|--------------------|
 |-----------------------|--------------------|
 |-----------------------|--------------------|

|
| E E E E E E E E E E E E E E E E
 
 |-----------------------|--------------------|
 |-----------------------|--------------------|
 |-----------------------|--------------------|
 |-----------------------|--------------------|
 |-----------------------|------0-----0---0-2-|
 |-----------------0---2-|----------2---2-----|
 |--0--0----3------------|--------------------|

|
| E Q. +H +W
 
 |-----------------------|--------------------|
 |-----------------------|--------------------|
 |-14-15------(15)-------|-(15)---------------|
 |-----------------------|--------------------|
 |-----------------------|--------------------|
 |-----------------------|--------------------|

W W
 
 |-----------------------|---------------------|
 |-----------------------|---------------------|
 |-----------------------|---------------------|
 |-----------------------|---------------------|
 |-----------------------|---------------------|
 |-----------------------|---------------------|
 |-----------------------|---------------------|

|
| W W
 
 |-----------------------|---------------------|
 |-----------------------|---------------------|
 |-----------------------|---------------------|
 |-----------------------|---------------------|
 |-----------------------|---------------------|
 |-----------------------|---------------------|
 |-----------------------|---------------------|

|
| E E E E E Q E +Q. E E Q E
 
 |-----------------------|---------------------|
 |-----------------------|---------------------|
 |-19-19-19-19-19-20--19-|-(19)---15-19-20--19-|
 |-----------------------|---------------------|
 |-----------------------|---------------------|
 |-----------------------|---------------------|
 PM---------------------------------------|

[E] [E] [E] [E] [E] [E] [E] [E] [E] [E] [E] [E] [E] [E] [E] [E]  
 
 |-------------------------|--------------------|
 |-------------------------|--------------------|
 |-------------------------|------2-----2---2-4-|
 |-------------------2---4-|----------4---4-----|
 |---2---2----5------------|--------------------|
 |-------------------------|--------------------|
 |-------------------------|--------------------|

|
| E E E E E E E E E E E E E E E E
 
 |-------------------------|--------------------|
 |-------------------------|--------------------|
 |-------------------------|--------------------|
 |-------------------------|--------------------|
 |-------------------------|------0-----0---0-2-|
 |-------------------0---2-|----------2---2-----|
 |---0---0----3------------|--------------------|

|
| +E Q. +H +W
 
 |-------------------------|--------------------|
 |-------------------------|--------------------|
 |-(19)-15------(15)-------|-(15)---------------|
 |-------------------------|--------------------|
 |-------------------------|--------------------|
 |-------------------------|--------------------|
 PM----------------------------------------------

[E] [E] [E] [E] [E] [E] [E] [E] [E] [E] [E] [E] [E] [E] [E] [E]  
 
 |------------------------|------------------------|
 |------------------------|------------------------|
 |------------------------|------2-------2----2--4-|
 |-----------------2----4-|-----------4-----4------|
 |--2--2-----5------------|------------------------|
 |------------------------|------------------------|
 |------------------------|------------------------|

|
 
 | PM----------------------------------| PM-

| E E E E E E E E E E E E E E E E
 
 |------------------------|------------------------|
 |------------------------|------------------------|
 |------------------------|------------------------|
 |------------------------|------------------------|
 |------------------------|-----------------0------|
 |------------------------|-------------------2----|
 |--0--0--0--0--0--0-0--0-|---0--0-0--0--0-------0-|

|
| E E E E E Q E +Q. E E Q E
 
 |------------------------|------------------------|
 |------------------------|------------------------|
 |-19-19-19-19-19-20---19-|-(19)-----15-19-20---19-|
 |------------------------|------------------------|
 |------------------------|------------------------|
 |------------------------|------------------------|
 --------------------------------------------|

[E] [E] [E] [E] [E] [E] [E] [E] [E] [E] [E] [E] [E] [E] [E] [E]  
 
 |-------------------------|--------------------|
 |-------------------------|--------------------|
 |-------------------------|------2-----2---2-4-|
 |-------------------2---4-|----------4---4-----|
 |---2---2----5------------|--------------------|
 |-------------------------|--------------------|
 |-------------------------|--------------------|

|
 
 |----------| PM-----------|

| E E E E E E E E E E E E E E E E
 
 |-------------------------|--------------------|
 |-------------------------|--------------------|
 |-------------------------|--------------------|
 |-------------------------|--------------------|
 |------------0------------|------------0-------|
 |-------------------2-----|--------------2-----|
 |---0---0--0------------0-|---0--0-0-0-----0-0-|

|
| +E Q. +H +W
 
 |-------------------------|--------------------|
 |-------------------------|--------------------|
 |-(19)-15------(15)-------|-(15)---------------|
 |-------------------------|--------------------|
 |-------------------------|--------------------|
 |-------------------------|--------------------|

Outro
[E] [E] [E] [E] [E] [E] [E] [E] [E] [E] [E] [E] [E] [E] [E] [E]  
 
 |-----------------------|-------------------------|
 |-----------------------|-------------------------|
 |--4--------------------|-----2---------------2h4-|
 |----------------2----4-|-----------4------4------|
 |-----2-----5-----------|-------------------------|
 |-----------------------|-------------------------|
 |-----------------------|-------------------------|

|
 
 | PM---| PM-------------| PM-

| E E E E E E E E E E E E S S E E E
 
 |-----------------------|-------------------------|
 |-----------------------|-------------------------|
 |-----------------------|-------------------------|
 |-----------------------|-------------------------|
 |-----------0-----------|--------------0-0--------|
 |----------------2------|------------------2------|
 |--0--0--0----------0-0-|--0--0--0--0-----------0-|

|
| E E E E Q Q E E E E Q Q
 
 |-----------------------|-------------------------|
 |-----------------------|-------------------------|
 |-14-14-14-14-14---14---|-14-14-14-14-14-----14---|
 |-----------------------|-------------------------|
 |-----------------------|-------------------------|
 |-----------------------|-------------------------|

[E] [E] [E] [E] [E] [E] [E] [E] [E] [E] [E] [E] [E] [E] [E] [E]  
 
 |-----------------------|--------------------*|
 |-----------------------|--------------------*|
 |--4--------------------|------2---------2-4-*|
 |-----------------2---4-|----------4---4-----*|
 |-----2----5------------|--------------------*|
 |-----------------------|--------------------*|
 |-----------------------|--------------------*|

|
 
 |--------| PM--|

| E E E E E E E E E E E E E E E E
 
 |-----------------------|--------------------*|
 |-----------------------|--------------------*|
 |-----------------------|--------------------*|
 |-----------------------|--------------------*|
 |----------0------------|----------------0-2-*|
 |-----------------2---2-|------2-------------*|
 |--0--0--0----------0-0-|------0---0-0-0-----*|

|
| E Q. +H +W
 
 |-----------------------|--------------------*|
 |-----------------------|--------------------*|
 |-14-15------(15)-------|-(15)---------------*|
 |-----------------------|--------------------*|
 |-----------------------|--------------------*|
 |-----------------------|--------------------*|
 --------------------------------------------------------------------------------

Duration Legend
 
 ---------------
 W - whole; H - half; Q - quarter; E - 8th; S - 16th; T - 32nd; X - 64th; a - acciaccatura

+ - note tied to previous; . - note dotted; .. - note double dotted
Uncapitalized letters represent notes that are staccato (1/2 duration)
Irregular groupings are notated above the duration line
Duration letters will always appear directly above the note/fret number it represents the
duration for. Duration letters with no fret number below them represent rests. Multi-
bar rests are notated in the form Wxn, where n is the number of bars to rest for. Low
melody durations appear below the staff
Tablature Legend
 
 ----------------

h - hammer-on
p - pull-off
b - bend
pb - pre-bend
r - bend release (if no number after the r, then release immediately)
/\ - slide into or out of (from/to "nowhere")
s - legato slide
S - shift slide
- natural harmonic
(n) - artificial harmonic
n(n) - tapped harmonic
~ - vibrato
tr - trill
T - tap
TP - trem. picking
PM - palm muting
\n/ - tremolo bar dip; n = amount to dip
\n - tremolo bar down
n/ - tremolo bar up
/n\ - tremolo bar inverted dip
= - hold bend; also acts as connecting device for hammers/pulls
- volume swell (louder/softer)
x - on rhythm slash represents muted slash
o - on rhythm slash represents single note slash
Misc Legend
 
 -----------

| - bar
|| - double bar
||o - repeat start
o|| - repeat end
*| - double bar (ending)
: - bar (freetime)
$ - Segno
& - Coda
Tempo markers - = BPM(8/16=s8/s16), where s8 = swing 8ths, s16 = swing 16ths

Important: The song above is NOT stored on the Chordie server. The original song is hosted at www.guitaretab.com. Chordie works as a search engine and provides on-the-fly formatting. Chordie does not index songs against artists'/composers' will. To remove this song please click here.

Text color:
Chord color:
Chord grids: 
Font size:    
Page size: 

E
Rate #1 of 2 versions

Jango Player

Login - add to songbook

SHARE PAGE  




You need to log in to post comments