Guitar Tabs, Chords and Lyrics
Major upgrade!! After one year development the new version of Chordie is now online! Please give feedback.


Twist  Korn

Gtr I (A D G C F A D) - 'Head'
Gtr II (A D G C F A D) - 'Head 2 (for chorus effect)'
Gtr III (A D G C F A D) - 'Munky'
Vocal IntroVerse
Q=80
N.C. B C B C
[4/4] Gtrs I, II
W H E E E E
 
 |----------|--------------------7-19----13----|
 |----------|----------------------------------|
 |----------|----------------------------------|
 |----------|----------------------------------|
 |----------|----------------------------------|
 |----------|----------------------------------|
 |----------|----------------------------------|

|
| Gtr III
| W S S E S E S S S E S E S
 
 |----------|----------------------------------|
 |----------|-------11s12-13-------12s11s===10-|
 |----------|----------------------------------|
 |----------|--------9s10-11-------10s=9s====8-|
 |----------|----------------------------------|
 |----------|----------------------------------|
 |----------|-0-0-0----------0-0-0-------------|

[B]H [C] [B]Q [C] S +S +E
 
 |----------------------24-(24)b25r(24)----|
 |-----------------------------------------|
 |-----------------------------------------|
 |-----------------------------------------|
 |-----------------------------------------|
 |-----------------------------------------|
 |-----------------------------------------|

|
| S S E S E S S S E S E S
 
 |-----------------------------------------|
 |-------11s12-13-------12s=11s=========10-|
 |-----------------------------------------|
 |--------9s10-11-------10s==9s==========8-|
 |-----------------------------------------|
 |-----------------------------------------|
 |-0-0-0----------0-0-0--------------------|

[B]H [C] [B]E E [C] E E [B]H [C] [B]Q [C] S +S +E
 
 |--------------------7-19----13----|----------------------24-(24)b25r(24)-----|
 |----------------------------------|------------------------------------------|
 |----------------------------------|------------------------------------------|
 |----------------------------------|------------------------------------------|
 |----------------------------------|------------------------------------------|
 |----------------------------------|------------------------------------------|
 |----------------------------------|------------------------------------------|

|
| S S E S E S S S E S E S S S E S E S S S E S E S
 
 |----------------------------------|------------------------------------------|
 |-------11s12-13-------12s11s===10-|-------11s12-13-------12s=11s=========10--|
 |----------------------------------|------------------------------------------|
 |--------9s10-11-------10s=9s====8-|--------9s10-11-------10s==9s==========8--|
 |----------------------------------|------------------------------------------|
 |----------------------------------|------------------------------------------|
 |-0-0-0----------0-0-0-------------|-0-0-0----------0-0-0---------------------|

[B]H [C] [B]E E [C] E E [B]H [C] [B]Q [C] S +S +E
 
 ||---------------------7-19----13----|----------------------24-(24)b25r(24)----|
 ||-----------------------------------|-----------------------------------------|
 ||o----------------------------------|-----------------------------------------|
 ||-----------------------------------|-----------------------------------------|
 ||o----------------------------------|-----------------------------------------|
 ||-----------------------------------|-----------------------------------------|
 ||-----------------------------------|-----------------------------------------|

|
| S S E S E S S S E S E S S S E S E S S S E S E S
 
 ||-----------------------------------|-----------------------------------------|
 ||--------11s12-13-------12s11s===10-|-------11s12-13-------12s=11s=========10-|
 ||o----------------------------------|-----------------------------------------|
 ||---------9s10-11-------10s=9s====8-|--------9s10-11-------10s==9s==========8-|
 ||o----------------------------------|-----------------------------------------|
 ||-----------------------------------|-----------------------------------------|
 ||--0-0-0----------0-0-0-------------|-0-0-0----------0-0-0--------------------|

[B]H [C] [B]E E [C] E E [B]H [C] [B]Q [C] S +S +E
 
 |--------------------7-19----13----|----------------------24-(24)b25r(24)-------|
 |----------------------------------|--------------------------------------------|
 |----------------------------------|--------------------------------------------|
 |----------------------------------|--------------------------------------------|
 |----------------------------------|--------------------------------------------|
 |----------------------------------|--------------------------------------------|
 |----------------------------------|--------------------------------------------|

|
| S S E S E S S S E S E S S S E S E S S S E S E S
 
 |----------------------------------|--------------------------------------------|
 |-------11s12-13-------12s11s===10-|-------11s12-13-------12s=11s=========10----|
 |----------------------------------|--------------------------------------------|
 |--------9s10-11-------10s=9s====8-|--------9s10-11-------10s==9s==========8----|
 |----------------------------------|--------------------------------------------|
 |----------------------------------|--------------------------------------------|
 |-0-0-0----------0-0-0-------------|-0-0-0----------0-0-0-----------------------|

Chorus
1.
[B]S S E [C] S +E. [B]S S E [C] S +E. [B]S S E [C] S +E. [B]S S E [C] S +E.
 
 |-----------------------------|------------------------------||
 |-------11-(11)-------11-(11)-|-------11-(11)-------11-(11)--||
 |--------9--(9)--------9--(9)-|--------9--(9)--------9--(9)-o||
 |--------8--(8)--------8--(8)-|--------8--(8)--------8--(8)--||
 |-----------------------------|-----------------------------o||
 |-----------------------------|------------------------------||
 |-0-0-0---------0-0-0---------|-0-0-0---------0-0-0----------||

|
| S S E S +E. S S E S +E. S S E S +E. S S E S +E.
 
 |-----------------------------|------------------------------||
 |-----------------------------|------------------------------||
 |--------9--(9)--------9--(9)-|--------9--(9)--------9--(9)-o||
 |--------8--(8)--------8--(8)-|--------8--(8)--------8--(8)--||
 |-----------------------------|-----------------------------o||
 |-----------------------------|------------------------------||
 |-0-0-0---------0-0-0---------|-0-0-0---------0-0-0----------||

2.
[B]S S E [C] S +E. [B]S S E [C] S +E. [B]E E [C] E. [B]S S S E Q
 
 |-----------------------------|--------------------*|
 |-------11-(11)-------11-(11)-|-----11-------------*|
 |--------9--(9)--------9--(9)-|------9-------------*|
 |--------8--(8)--------8--(8)-|------8-------------*|
 |-----------------------------|--------------------*|
 |-----------------------------|--------------------*|
 |-0-0-0---------0-0-0---------|-0-0-----0-0-0-0----*|

|
| S S E S +E. S S E S +E. E E E. S S S E Q
 
 |-----------------------------|--------------------*|
 |-----------------------------|--------------------*|
 |--------9--(9)--------9--(9)-|------9-------------*|
 |--------8--(8)--------8--(8)-|------8-------------*|
 |-----------------------------|--------------------*|
 |-----------------------------|--------------------*|
 |-0-0-0---------0-0-0---------|-0-0-----0-0-0-0----*|
 --------------------------------------------------------------------------------

Duration Legend
 
 ---------------
 W - whole; H - half; Q - quarter; E - 8th; S - 16th; T - 32nd; X - 64th; a - acciaccatura

+ - note tied to previous; . - note dotted; .. - note double dotted
Uncapitalized letters represent notes that are staccato (1/2 duration)
Irregular groupings are notated above the duration line
Duration letters will always appear directly above the note/fret number it represents the
duration for. Duration letters with no fret number below them represent rests. Multi-
bar rests are notated in the form Wxn, where n is the number of bars to rest for. Low
melody durations appear below the staff
Tablature Legend
 
 ----------------

h - hammer-on
p - pull-off
b - bend
pb - pre-bend
r - bend release (if no number after the r, then release immediately)
/\ - slide into or out of (from/to "nowhere")
s - legato slide
S - shift slide
- natural harmonic
(n) - artificial harmonic
n(n) - tapped harmonic
~ - vibrato
tr - trill
T - tap
TP - trem. picking
PM - palm muting
\n/ - tremolo bar dip; n = amount to dip
\n - tremolo bar down
n/ - tremolo bar up
/n\ - tremolo bar inverted dip
= - hold bend; also acts as connecting device for hammers/pulls
- volume swell (louder/softer)
x - on rhythm slash represents muted slash
o - on rhythm slash represents single note slash
Misc Legend
 
 -----------

| - bar
|| - double bar
||o - repeat start
o|| - repeat end
*| - double bar (ending)
: - bar (freetime)
$ - Segno
& - Coda
Tempo markers - = BPM(8/16=s8/s16), where s8 = swing 8ths, s16 = swing 16ths

Important: The song above is NOT stored on the Chordie server. The original song is hosted at www.guitaretab.com. Chordie works as a search engine and provides on-the-fly formatting. Chordie does not index songs against artists'/composers' will. To remove this song please click here.

Text color:
Chord color:
Chord grids: 
Font size:    
Page size: 

B C
Rate #0 of 2 versions

Jango Player

Login - add to songbook

SHARE PAGE  




You need to log in to post comments