Guitar Tabs, Chords and Lyrics
Major upgrade!! After one year development the new version of Chordie is now online! Please give feedback.


Wake Up Hate  Korn

Gtr I (A D G C F A D) - 'Munky'
Gtr II (A D G C F A D) - 'Munky (Left)'
Gtr III (A D G C F A D) - 'Head (Right)'
Intro
Moderately Fast Q=156
N.C.
[4/4] Gtr I
[E] [E] [E] [E] [E] [E] [E] [E] [E] [E] [E] [E] [E] [E] [E] [E] [E] [E] [E] [E] [E] [E] [E] [E] [E] [E] [E] [E] [E] [E] [E] [E]  
 
 ||------------------|-----------------|-----------------|------------------||
 ||------------------|-----------------|-----------------|------------------||
 ||o-----------------|-----------------|-----------------|-----------------o||
 ||------------------|-----------------|-----------------|------------------||
 ||o-----------------|-----------------|-----------------|-----------------o||
 ||----6-7---6-7---6-|-7---6-7---8-8-8-|---6-7---6-7---6-|-7---6-7---8-8-8--||
 ||--0-----0-----0---|---0-----0-------|-0-----0-----0---|---0-----0--------||

Chorus
$
Gt[A#B5]rs II,[A#B5] III[A#5] [B5] [A#B5] [C5]
[E] [E] [E] [E] [E] [E] [E] [E] [E] [E] [E] [E] [E] [E] [E] [E]  
 
 ||------------------|--------------------|
 ||------------------|--------------------|
 ||o-----------------|--------------------|
 ||------------------|--------------------|
 ||o---8-9---8-9---8-|-9---8-9---10-10-10-|
 ||----6-7---6-7---6-|-7---6-7----8--8--8-|
 ||--0-----0-----0---|---0-----0----------|

E [A#B5]E E E [A#B5]E E E [A#5]E [B5]E E [A#B5]E E E [C5] E E E 4x
 
 |-----------------|----------------------||
 |-----------------|----------------------||
 |-----------------|---------------------o||
 |-----------------|----------------------||
 |---8-9---8-9---8-|-9---8-9---10-10-10--o||
 |---6-7---6-7---6-|-7---6-7----8--8--8---||
 |-0-----0-----0---|---0-----0------------||

Verse
N.C.
[E] [E] [E] [E] [E] [E] [E] [E] [E] [E] [E] [E] [E] [E] [E] [E] [E] [E] [E] [E] [E] [E] [E] [E] [E] [E] [E] [E] [B]  
 
 ||------------------|-----------------|-----------------|---------------||
 ||------------------|-----------------|-----------------|---------------||
 ||o-----------------|-----------------|-----------------|--------------o||
 ||------------------|-----------------|-----------------|---------------||
 ||o-----------------|-----------------|-----------------|--------------o||
 ||------------------|-----------------|-----------------|---------------||
 ||--1-1-1-0-1---1-1-|-1-0-1---1-2---2-|-1-1-1-0-1---1-1-|-1-0-1---------||

Gtr I
E E Q E E E E E E E E E E E E E E Q E E E E E E E E E E E E
 
 |-----------------|-----------------|-----------------|-----------------|
 |-----------------|-----------------|-----------------|-----------------|
 |-----------------|-----------------|-----------------|-----------------|
 |-----------------|-----------------|-----------------|-----------------|
 |-----------------|-----------------|-----------------|-----------------|
 |-----------------|-----------------|-----------------|-----------------|
 |--2-1----1---0-1-|-2-1-0-1---1---0-|--2-1----1---0-1-|-2-1-0-1---1---0-|

|
| Gtr III
| ~~~~~~~~~~~~~~~~~~~~~~~~~~~~~~~~~~~~~~~~~~~~~~~~~~~~~~~
| W W W W
 
 |-----------------|-----------------|-----------------|-----------------|
 |-----------------|-----------------|-----------------|-----------------|
 |-----------------|-----------------|-----------------|-----------------|
 |-10--------------|-9---------------|-10--------------|-9---------------|
 |-----------------|-----------------|-----------------|-----------------|
 |-----------------|-----------------|-----------------|-----------------|
 |-----------------|-----------------|-----------------|-----------------|

D.S.
[E] [E] [E] [E] [E] [E] [E] [E] [E] [E] [E] [E] [E] [E] [E] [E] [E] [E] [E] [E] [E] [E] [E] [E] [E] [E] [E] [E] [E] [E] [E] [E]  
 
 |------------------|-------------------|------------------|-------------------|
 |------------------|-------------------|------------------|-------------------|
 |------------------|-------------------|------------------|-------------------|
 |------------------|-------------------|------------------|-------------------|
 |------------------|-------------------|------------------|-------------------|
 |------------------|-------------------|------------------|-------------------|
 |--2-1---1---0---1-|--3-1---1----0---1-|--2-1---1---0---1-|--3-3-3-3--2-2-2-2-|

|
| ~~~~~~~~~~~~~~~~~~~~~~~~~~~~~~~~~~~~~~~~~~~~~~~~~~~~~~~~~~~~~~~~~~~~~
| H H H H H H H H
 
 |------------------|-------------------|------------------|-------------------|
 |------------------|-------------------|------------------|-------------------|
 |------------------|-------------------|------------------|-------------------|
 |-10-------9-------|-13-------12-------|-10-------9-------|-13-------12-------|
 |------------------|-------------------|------------------|-------------------|
 |------------------|-------------------|------------------|-------------------|
 |------------------|-------------------|------------------|-------------------|

Bridge
N.C.
Gtr I
E E Q H Q. E +H E E Q H E Q. E Q. 4x
 
 ||--------------|---------------|-------------|-----------------||
 ||--------------|---------------|-------------|-----------------||
 ||o-------------|---------------|-------------|----------------o||
 ||--------------|---------------|-------------|-----------------||
 ||o-------------|---------------|-------------|----------------o||
 ||----1-2--1----|---------------|---1-2--1----|-1---------------||
 ||--0-----------|-3----2-(2)----|-0-----------|---3----3-2------||

E E H E E H E E E E E E H E E E. E. E E. E. E
 
 |--------------|--------------|--------------|-----------------|
 |--------------|--------------|--------------|-----------------|
 |--------------|--------------|--------------|-----------------|
 |--------------|--------------|--------------|-----------------|
 |--------------|--------------|--------------|-----------------|
 |--------------|----------2---|--------------|-----------------|
 |-2-3-2----2-3-|-2----2-3---3-|-2-3-2----2-3-|-3--3--3-2--2--2-|

Out-Chorus
Gt[A#B5]rs II,[A#B5] III[A#5] [B5] [A#B5] [C5]
[E] [E] [E] [E] [E] [E] [E] [E] [E] [E] [E] [E] [E] [E] [E] [E]  
 
 ||------------------|--------------------|
 ||------------------|--------------------|
 ||o-----------------|--------------------|
 ||------------------|--------------------|
 ||o---8-9---8-9---8-|-9---8-9---10-10-10-|
 ||----6-7---6-7---6-|-7---6-7----8--8--8-|
 ||--0-----0-----0---|---0-----0----------|

E [A#B5]E E E [A#B5]E E E [A#5]E [B5]E E [A#B5]E E E [C5] E E E 8x
 
 |-----------------|----------------------||
 |-----------------|----------------------||
 |-----------------|---------------------o||
 |-----------------|----------------------||
 |---8-9---8-9---8-|-9---8-9---10-10-10--o||
 |---6-7---6-7---6-|-7---6-7----8--8--8---||
 |-0-----0-----0---|---0-----0------------||
 --------------------------------------------------------------------------------

Duration Legend
 
 ---------------
 W - whole; H - half; Q - quarter; E - 8th; S - 16th; T - 32nd; X - 64th; a - acciaccatura

+ - note tied to previous; . - note dotted; .. - note double dotted
Uncapitalized letters represent notes that are staccato (1/2 duration)
Irregular groupings are notated above the duration line
Duration letters will always appear directly above the note/fret number it represents the
duration for. Duration letters with no fret number below them represent rests. Multi-
bar rests are notated in the form Wxn, where n is the number of bars to rest for. Low
melody durations appear below the staff
Tablature Legend
 
 ----------------

h - hammer-on
p - pull-off
b - bend
pb - pre-bend
r - bend release (if no number after the r, then release immediately)
/\ - slide into or out of (from/to "nowhere")
s - legato slide
S - shift slide
- natural harmonic
(n) - artificial harmonic
n(n) - tapped harmonic
~ - vibrato
tr - trill
T - tap
TP - trem. picking
PM - palm muting
\n/ - tremolo bar dip; n = amount to dip
\n - tremolo bar down
n/ - tremolo bar up
/n\ - tremolo bar inverted dip
= - hold bend; also acts as connecting device for hammers/pulls
- volume swell (louder/softer)
x - on rhythm slash represents muted slash
o - on rhythm slash represents single note slash
Misc Legend
 
 -----------

| - bar
|| - double bar
||o - repeat start
o|| - repeat end
*| - double bar (ending)
: - bar (freetime)
$ - Segno
& - Coda
Tempo markers - = BPM(8/16=s8/s16), where s8 = swing 8ths, s16 = swing 16ths

Important: The song above is NOT stored on the Chordie server. The original song is hosted at www.guitaretab.com. Chordie works as a search engine and provides on-the-fly formatting. Chordie does not index songs against artists'/composers' will. To remove this song please click here.

Text color:
Chord color:
Chord grids: 
Font size:    
Page size: 

A#5 B B5 C5 E
Rate #1 of 1 versions

Jango Player

Login - add to songbook

SHARE PAGE  



You need to log in to post comments