Guitar Tabs, Chords and Lyrics
Server problems seems to be fixed. Chordie has been experiencing problems with songs disappearing. These issues now seems to be fixed, but still verifying the fix. If you find anything strange, please email admin@chordie.com.


Clown  Korn

Gtr I (A D G C F A D) - 'Munky'
Gtr II (A D G C F A D) - 'Head'
Intro
Moderately Fast Rock Q=160
[C5] [B5]  
[4/4] Gtr I
W S S S S E E H
 
 |----------|-----------------------|
 |----------|-----------------------|
 |----------|-----------------------|
 |----------|-----------------------|
 |----------|-----------------------|
 |----------|-3-3-3-3-2-------------|
 |----------|-1-1-1-1-0-------------|

|
| Gtr II
| W H Q +Q
 
 |----------|-----------------------|
 |----------|-------------0----(0)--|
 |----------|-------------5b6--(5)--|
 |----------|-----------------------|
 |----------|-----------------------|
 |----------|-----------------------|
 |----------|-----------------------|

[C5]S S S S [B5]E E H [C5]S S S S [B5]E E H
 
 |-----------------------|-----------------------|
 |-----------------------|-----------------------|
 |-----------------------|-----------------------|
 |-----------------------|-----------------------|
 |-----------------------|-----------------------|
 |-3-3-3-3-2-------------|-3-3-3-3-2-------------|
 |-1-1-1-1-0-------------|-1-1-1-1-0-------------|

|
| H Q +Q H E +Q.
 
 |-----------------------|-----------------------|
 |-------------0----(0)--|-------------0---(0)---|
 |-------------4b5--(4)--|-------------4b5-(4)---|
 |-----------------------|-----------------------|
 |-----------------------|-----------------------|
 |-----------------------|-----------------------|
 |-----------------------|-----------------------|

[C5]S S S S [B5]E E H W
 
 |-----------------------|------------||
 |-----------------------|------------||
 |-----------------------|------------||
 |-----------------------|------------||
 |-----------------------|------------||
 |-3-3-3-3-2-------------|------------||
 |-1-1-1-1-0-------------|------------||

|
| H Q +Q +W
 
 |-----------------------|------------||
 |-------------0----(0)--|-(0)--------||
 |-------------4b6--(4)--|-(4)--------||
 |-----------------------|------------||
 |-----------------------|------------||
 |-----------------------|------------||
 |-----------------------|------------||

W [D5EbD5C#D5C#D5Eb5]E E E E E E E E [D5C#D5C#D5EbC#5]E E E E E E E E
 
 |------------|-----------------|------------------|
 |------------|-----------------|------------------|
 |------------|-----------------|------------------|
 |------------|-----------------|------------------|
 |------------|-----------------|------------------|
 |------------|-5-6-5-4-5-4-5-6-|-5-4-5-4-5-6-4----|
 |------------|-3-4-3-2-3-2-3-4-|-3-2-3-2-3-4-2----|

|
| +W W W
 
 |------------|-----------------|------------------|
 |------------|-----------------|------------------|
 |-(4)--------|-----------------|------------------|
 |------------|-----------------|------------------|
 |------------|-----------------|------------------|
 |------------|-----------------|------------------|
 |------------|-----------------|------------------|

[D5EbD5C#D5C#D5Eb5]Gtrs I, II[D5C#D5C#D5EbC#5] [D5EbD5C#D5C#D5Eb5] [D5C#D5C#D5EbC#5]
[E] [E] [E] [E] [E] [E] [E] [E] [E] [E] [E] [E] [E] [E] [E] [E] [E] [E] [E] [E] [E] [E] [E] [E] [E] [E] [E] [E] [E] [E] [E] [E]  
 
 ||------------------|-----------------|-----------------|------------------||
 ||------------------|-----------------|-----------------|------------------||
 ||o-----------------|-----------------|-----------------|-----------------o||
 ||------------------|-----------------|-----------------|------------------||
 ||o-----------------|-----------------|-----------------|-----------------o||
 ||--5-6-5-4-5-4-5-6-|-5-4-5-4-5-6-4-4-|-5-6-5-4-5-4-5-6-|-5-4-5-4-5-6-4-4--||
 ||--3-4-3-2-3-2-3-4-|-3-2-3-2-3-4-2-2-|-3-4-3-2-3-2-3-4-|-3-2-3-2-3-4-2-2--||

[C#D5]E E E [EbD5]E E E [C#D5]E E E [EbD5]E E E [C#D5C#5]E E E E 4x
 
 ||------------------|------------------||
 ||------------------|------------------||
 ||o-----------------|-----------------o||
 ||------------------|------------------||
 ||o-----------------|-----------------o||
 ||--4s5---6s5---4s5-|---6s5---4s5s4----||
 ||--2s3---4s3---2s3-|---4s3---2s3s2----||

1st and 2nd Verse
$
N.C.
Gtr I
 
 PM--------------------------------------------------------------------|

[E] [E] [E] [E] [E] [E] [E] [E] [E] [E] [E] [E] [E] [E] [E] [E] [E] [E] [E] [E] [E] [E] [E] [E] [E] [E] [E] [E] [E] [E] [E] [E]  
 
 ||------------------|------------------|-----------------|------------------|
 ||------------------|------------------|-----------------|------------------|
 ||o-----------------|------------------|-----------------|------------------|
 ||------------------|------------------|-----------------|------------------|
 ||o-5S6-5S4-5S4-5S6-|-5S4-5S4-5S6--4-4-|-5S6-5S4-5S4-5S6-|-5S4-5S4-5S6--4-4-|
 ||------------------|------------------|-----------------|------------------|
 ||------------------|------------------|-----------------|------------------|

|
| Gtr II
| ~~ ~~
| E E E E E E E E E E E E E E Q E E E E E E E E E E E E E E Q
 
 ||------------------|------------------|-----------------|------------------|
 ||--x-x-x-x-x-x-x-x-|-x-x-x-x-x-x-14---|-x-x-x-x-x-x-x-x-|-x-x-x-x-x-x-14---|
 ||o-x-x-x-x-x-x-x-x-|-x-x-x-x-x-x-15---|-x-x-x-x-x-x-x-x-|-x-x-x-x-x-x-15---|
 ||------------------|------------------|-----------------|------------------|
 ||o-----------------|------------------|-----------------|------------------|
 ||------------------|------------------|-----------------|------------------|
 ||------------------|------------------|-----------------|------------------|
 PM--------------------------------------------------------------------|

[E] [E] [E] [E] [E] [E] [E] [E] [E] [E] [E] [E] [E] [E] [E] [E] [E] [E] [E] [E] [E] [E] [E] [E] [E] [E] [E] [E] [E] [E] [E] [E]  
 
 |-----------------|------------------|-----------------|--------------------||
 |-----------------|------------------|-----------------|--------------------||
 |-----------------|------------------|-----------------|-------------------o||
 |-----------------|------------------|-----------------|--------------------||
 |-5S6-5S4-5S4-5S6-|-5S4-5S4-5S6--4-4-|-5S6-5S4-5S4-5S6-|-5S4-5S4-5S6--4-4--o||
 |-----------------|------------------|-----------------|--------------------||
 |-----------------|------------------|-----------------|--------------------||

|
| ~~ ~~
| E E E E E E E E E E E E E E Q E E E E E E E E E E E E E E Q
 
 |-----------------|------------------|-----------------|--------------------||
 |-x-x-x-x-x-x-x-x-|-x-x-x-x-x-x-14---|-x-x-x-x-x-x-x-x-|-x-x-x-x-x-x-14-----||
 |-x-x-x-x-x-x-x-x-|-x-x-x-x-x-x-15---|-x-x-x-x-x-x-x-x-|-x-x-x-x-x-x-15----o||
 |-----------------|------------------|-----------------|--------------------||
 |-----------------|------------------|-----------------|-------------------o||
 |-----------------|------------------|-----------------|--------------------||
 |-----------------|------------------|-----------------|--------------------||

Chorus
$$
Gtr I
E E Q Q Q E E E S S E E E E
||---------------|----------------------------|
||---------------|----------------------------|
||o--------------|----------------------------|
||---------------|----------------------------|
||o--------------|----------------------------|
||--2-2-2--2-----|-5S==6S=5--5--5--5S=4--4S=3-|
||--0-0-0--0--0--|-3S==4S=3--3--3--3S=2--2S=1-|
|
| Gtr II
| E E Q Q Q E E E S S E E E E
||---------------|----------------------------|
||---------------|----------------------------|
||o--------------|----------------------------|
||---------------|----------------------------|
||o-2-2-2--2-----|---/13S12-12-12-12S11-11S10-|
||--2-2-2--2--2--|---/11S10-10-10-10S=9--9S=8-|
||--0-0-0--0--0--|----------------------------|
E E Q Q Q E E E S S E E E E
|--------------|----------------------------|
|--------------|----------------------------|
|--------------|----------------------------|
|--------------|----------------------------|
|--------------|----------------------------|
|-2-2-2--2-----|-5S==6S=5--5--5--5S=4--4S=3-|
|-0-0-0--0--0--|-3S==4S=3--3--3--3S=2--2S=1-|
|
| E E Q Q Q E E E S S E E E E
|--------------|----------------------------|
|--------------|----------------------------|
|--------------|----------------------------|
|--------------|----------------------------|
|-2-2-2--2-----|---/13S12-12-12-12S11-11S10-|
|-2-2-2--2--2--|---/11S10-10-10-10S=9--9S=8-|
|-0-0-0--0--0--|----------------------------|
E E Q Q Q E E E S S E E E E
|--------------|----------------------------|
|--------------|----------------------------|
|--------------|----------------------------|
|--------------|----------------------------|
|--------------|----------------------------|
|-2-2-2--2-----|-5S==6S=5--5--5--5S=4--4S=3-|
|-0-0-0--0--0--|-3S==4S=3--3--3--3S=2--2S=1-|
|
| E E Q Q Q E E E S S E E E E
|--------------|----------------------------|
|--------------|----------------------------|
|--------------|----------------------------|
|--------------|----------------------------|
|-2-2-2--2-----|---/13S12-12-12-12S11-11S10-|
|-2-2-2--2--2--|---/11S10-10-10-10S=9--9S=8-|
|-0-0-0--0--0--|----------------------------|
To Coda
To Coda
E E Q Q Q E E E S S E E E E
|--------------|------------------------------||
|--------------|------------------------------||
|--------------|-----------------------------o||
|--------------|------------------------------||
|--------------|-----------------------------o||
|-2-2-2--2-----|-5S6S==5--5-5--5S====4--4S=3--||
|-0-0-0--0--0--|-3S4S==3--3-3--3S====2--2S=1--||
|
| E E Q Q Q E E E E S S E E E
|--------------|------------------------------||
|--------------|------------------------------||
|--------------|-----------------------------o||
|--------------|------------------------------||
|-2-2-2--2-----|-----/13S12---12-12-12S11-11-o||
|-2-2-2--2--2--|-----/11S10---10-10-10S=9--9--||
|-0-0-0--0--0--|------------------------------||
S S S S E E H S S S S E E H
|-----------------------|-----------------------|
|-----------------------|-----------------------|
|-----------------------|-----------------------|
|-----------------------|-----------------------|
|-----------------------|-----------------------|
|-3-3-3-3-2-------------|-3-3-3-3-2-------------|
|-1-1-1-1-0-------------|-1-1-1-1-0-------------|
|
| H E +Q. H E +Q.
|-----------------------|-----------------------|
|-------------0---(0)---|-------------0---(0)---|
|-------------4b5-(4)---|-------------4b5-(4)---|
|-----------------------|-----------------------|
|-----------------------|-----------------------|
|-----------------------|-----------------------|
|-----------------------|-----------------------|
D.S. al Coda
S S S S E E H S S S S E E H
|-----------------------|------------------||
|-----------------------|------------------||
|-----------------------|------------------||
|-----------------------|------------------||
|-----------------------|------------------||
|-3-3-3-3-2-------------|-3-3-3-3-2--------||
|-1-1-1-1-0-------------|-1-1-1-1-0--------||
|
| H E +Q. W
|-----------------------|------------------||
|-------------0---(0)---|------------------||
|-------------4b5-(4)---|------------------||
|-----------------------|------------------||
|-----------------------|------------------||
|-----------------------|------------------||
|-----------------------|------------------||
&
B5
E E Q H W Q W
|-------------|----------|---------|
|-------------|----------|---------|
|-------------|----------|---------|
|-------------|----------|---------|
|-------------|----------|---------|
|-2-2-2-------|----------|---------|
|-0-0-0-------|----------|---------|
Interlude
B5 N.C.
PM| PM--|
Q E E E +Q. +E E E E E +E +Q
|----------------------|--------------------------------|
|----------------------|--------------------------------|
|---------5b7====(5)---|--(5)r--------5b7====(5)--(5)r--|
|----------------------|--------------------------------|
|----------------------|--------------------------------|
|-2--------------------|--------------------------------|
|-0--0-0---------------|-------0-0-0--------------------|
|
| Gtr II
| PM| PM--|
| Q E E E +Q. +E E E E E +Q.
|----------------------|--------------------------------|
|----------------------|--------------------------------|
|--------17b19==(17)---|-(17)r-------17b19==(17)r-------|
|----------------------|--------------------------------|
|----------------------|--------------------------------|
|-2--------------------|--------------------------------|
|-0--0-0---------------|-------0-0-0--------------------|
B5N.C.
PM| PM--|
Q E E E +Q. +E E E E E +E +Q
|--------------------------|--------------------------------|
|--------------------------|--------------------------------|
|---------5b7====(5)-------|--(5)r--------5b7====(5)--(5)r--|
|--------------------------|--------------------------------|
|--------------------------|--------------------------------|
|-2------------------------|--------------------------------|
|-0--0-0-------------------|-------0-0-0--------------------|
|
| PM| PM--|
| Q E E E +E +Q +E E E E E +E +Q
|--------------------------|--------------------------------|
|--------------------------|--------------------------------|
|--------17b19==(17)-(17)--|-(17)r-------17b19==(17)-(17)r--|
|--------------------------|--------------------------------|
|--------------------------|--------------------------------|
|-2------------------------|--------------------------------|
|-0--0-0-------------------|-------0-0-0--------------------|
Bridge
B5 N.C.
PM| PM--|
Q E E E +Q. +E E E E E +E +Q
||-----------------------|--------------------------------|
||-----------------------|--------------------------------|
||o---------5b7====(5)---|--(5)r--------5b7====(5)--(5)r--|
||-----------------------|--------------------------------|
||o----------------------|--------------------------------|
||--2--------------------|--------------------------------|
||--0--0-0---------------|-------0-0-0--------------------|
|
| PM| PM--|
| Q E E E +Q. +E E E E E +Q.
||-----------------------|--------------------------------|
||-----------------------|--------------------------------|
||o--------17b19==(17)---|-(17)r-------17b19==(17)r-------|
||-----------------------|--------------------------------|
||o----------------------|--------------------------------|
||--2--------------------|--------------------------------|
||--0--0-0---------------|-------0-0-0--------------------|
B5 N.C. C5C#5
PM| PM--|
Q E E E +Q. +E E E E E Q. 3x
|--------------------------|---------------------||
|--------------------------|---------------------||
|---------5b7====(5)-------|--(5)r--------------o||
|--------------------------|---------------------||
|--------------------------|--------------------o||
|-2------------------------|-------------3-4-----||
|-0--0-0-------------------|-------0-0-0-1-2-----||
|
| PM| PM--|
| Q E E E +E +Q +E E E E E Q. 3x
|--------------------------|---------------------||
|--------------------------|---------------------||
|--------17b19==(17)-(17)--|-(17)r--------------o||
|--------------------------|---------------------||
|--------------------------|--------------------o||
|-2------------------------|-------------3-4-----||
|-0--0-0-------------------|-------0-0-0-1-2-----||
N.C. D5EbD5C#D5C#D5Eb5 D5C#D5C#D5EbC#5
Gtrs I, II
W W E E E E E E E E E E E E E E E E 4x
|----------|----------||------------------|-------------------||
|----------|----------||------------------|-------------------||
|----------|----------||o-----------------|------------------o||
|----------|----------||------------------|-------------------||
|----------|----------||o-----------------|------------------o||
|----------|----------||--5S6-5-4S5-4-5S6-|-5-4S5-4-5S6-4-4---||
|----------|----------||--3S4-3-2S3-2-3S4-|-3-2S3-2-3S4-2-2---||
Outro
D.S.S. al Dbl. Coda &&
C#D5 EbD5 C#D5 EbD5 C#D5C#5 N.C. B5
E E E E E E E E E E E E E E E E 4x Q W E E Q H 8x
||------------------|------------------||-|-------------||---------------||
||------------------|------------------||-|-------------||---------------||
||o-----------------|-----------------o||-|-------------||o-------------o||
||------------------|------------------||-|-------------||---------------||
||o-----------------|-----------------o||-|-------------||o-------------o||
||--4s5---6s5---4s5-|---6s5---4s5s4----||-|-------------||--2-2-2--------||
||--2s3---4s3---2s3-|---4s3---2s3s2----||-|-------------||--0-0-0--------||
--------------------------------------------------------------------------------
Duration Legend
---------------
W - whole; H - half; Q - quarter; E - 8th; S - 16th; T - 32nd; X - 64th; a - acciaccatura
+ - note tied to previous; . - note dotted; .. - note double dotted
Uncapitalized letters represent notes that are staccato (1/2 duration)
Irregular groupings are notated above the duration line
Duration letters will always appear directly above the note/fret number it represents the
duration for. Duration letters with no fret number below them represent rests. Multi-
bar rests are notated in the form Wxn, where n is the number of bars to rest for. Low
melody durations appear below the staff
Tablature Legend
----------------
h - hammer-on
p - pull-off
b - bend
pb - pre-bend
r - bend release (if no number after the r, then release immediately)
/\ - slide into or out of (from/to "nowhere")
s - legato slide
S - shift slide
- natural harmonic
[n] - artificial harmonic
n(n) - tapped harmonic
~ - vibrato
tr - trill
T - tap
TP - trem. picking
PM - palm muting
\n/ - tremolo bar dip; n = amount to dip
\n - tremolo bar down
n/ - tremolo bar up
/n\ - tremolo bar inverted dip
= - hold bend; also acts as connecting device for hammers/pulls
- volume swell (louder/softer)
x - on rhythm slash represents muted slash
o - on rhythm slash represents single note slash
Misc Legend
-----------
| - bar
|| - double bar
||o - repeat start
o|| - repeat end
*| - double bar (ending)
: - bar (freetime)
$ - Segno
& - Coda
Tempo markers - = BPM(8/16=s8/s16), where s8 = swing 8ths, s16 = swing 16ths

Important: The song above is NOT stored on the Chordie server. The original song is hosted at www.guitaretab.com. Chordie works as a search engine and provides on-the-fly formatting. Chordie does not index songs against artists'/composers' will. To remove this song please click here.

Text color:
Chord color:
Chord grids: 
Font size:    
Page size: 

B5 C5 E
Rate #1 of 2 versions

Jango Player

Login - add to songbook

SHARE PAGE  



You need to log in to post comments