Guitar Tabs, Chords and Lyrics
Server problems seems to be fixed. Chordie has been experiencing problems with songs disappearing. These issues now seems to be fixed, but still verifying the fix. If you find anything strange, please email admin@chordie.com.


Black Horse and the Cherry Tree  KT Tunstall

 
 -------------------------------------------------------------------------------

Black Horse And The Cherry Tree - Kt Tunstall
 
 -------------------------------------------------------------------------------

Tabbed by: Aaron Simpson (Largebehind)
Tuning: Standard
Intro:
 
 e|-------------------------------------------------------------------------|
 B|-------------------------------------------------------------------------|
 G|-------------------------------------------------------------------------|
 D|----------------------------------------0--10--10--12--10--/-------------|
 A|---------------------0--10--10--12--10--0--10--10--12--10--/-------------|
 E|--0--10--10--12--10--0--10--10--12--10--0--10--10--12--10--/-------------|

[Em] [B7] 
P.M P.M |-P.M-| P.M P.M P.M
 
 e|-0--0--------0--0-------0-----0-----------2--------2--------2--2---------|
 B|-0--0--------0--0-------0-----0-----------0--------0--------0--0---------|
 G|-0--0--0-0---0--0--0-0--0--0--0--0--0--0--2--2--2--2--2--2--2--2--2--2---|
 D|-2--2--2-2---2--2--2-2--2--2--2--2--2--2--1--1--1--1--1--1--1--1--1--1---|
 A|-2--2--------2--2-------2-----2-----------2--------2--------2--2---------|
 E|-0--0--------0--0-------0-----0------------------------------------------|

[Em] 
P.M
 
 e|-0-----0-----------0----------------------------------------------------|
 B|-0-----0-----------0----------------------------------------------------|
 G|-0--0--0--0--0--0--0----------------------------------------------------|
 D|-2--2--2--2--2--2--2----------------------------------------------------|
 A|-------------------2----------------------------------------------------|
 E|-0-----0-----------0----------------------------------------------------|

[Em] [B7] 
P.M P.M |-P.M-| P.M P.M P.M
 
 e|-0--0--------0--0-------0-----0-----------2--------2--------2--2---------|
 B|-0--0--------0--0-------0-----0-----------0--------0--------0--0---------|
 G|-0--0--0-0---0--0--0-0--0--0--0--0--0--0--2--2--2--2--2--2--2--2--2--2---|
 D|-2--2--2-2---2--2--2-2--2--2--2--2--2--2--1--1--1--1--1--1--1--1--1--1---|
 A|-2--2--------2--2-------2-----2-----------2--------2--------2--2---------|
 E|-0--0--------0--0-------0-----0------------------------------------------|

[Em] 
P.M
 
 e|-0-----0-----------0----------------------------------------------------|
 B|-0-----0-----------0----------------------------------------------------|
 G|-0--0--0--0--0--0--0----------------------------------------------------|
 D|-2--2--2--2--2--2--2----------------------------------------------------|
 A|-------------------2----------------------------------------------------|
 E|-0-----0-----------0----------------------------------------------------|

[Em] [B7] 
P.M P.M |-P.M-| P.M P.M P.M
 
 e|-0--0--------0--0-------0-----0-----------2--------2--------2--2---------|
 B|-0--0--------0--0-------0-----0-----------0--------0--------0--0---------|
 G|-0--0--0-0---0--0--0-0--0--0--0--0--0--0--2--2--2--2--2--2--2--2--2--2---|
 D|-2--2--2-2---2--2--2-2--2--2--2--2--2--2--1--1--1--1--1--1--1--1--1--1---|
 A|-2--2--------2--2-------2-----2-----------2--------2--------2--2---------|
 E|-0--0--------0--0-------0-----0------------------------------------------|

[Em] 
P.M
 
 e|-0-----0-----------0----------------------------------------------------|
 B|-0-----0-----------0----------------------------------------------------|
 G|-0--0--0--0--0--0--0----------------------------------------------------|
 D|-2--2--2--2--2--2--2----------------------------------------------------|
 A|-------------------2----------------------------------------------------|
 E|-0-----0-----------0----------------------------------------------------|

[Em] [B7] 
P.M P.M |-P.M-| P.M P.M P.M
 
 e|-0--0--------0--0-------0-----0-----------2--------2--------2--2---------|
 B|-0--0--------0--0-------0-----0-----------0--------0--------0--0---------|
 G|-0--0--0-0---0--0--0-0--0--0--0--0--0--0--2--2--2--2--2--2--2--2--2--2---|
 D|-2--2--2-2---2--2--2-2--2--2--2--2--2--2--1--1--1--1--1--1--1--1--1--1---|
 A|-2--2--------2--2-------2-----2-----------2--------2--------2--2---------|
 E|-0--0--------0--0-------0-----0------------------------------------------|

[Em] 
P.M
 
 e|-0-----0-----------0----------------------------------------------------|
 B|-0-----0-----------0----------------------------------------------------|
 G|-0--0--0--0--0--0--0----------------------------------------------------|
 D|-2--2--2--2--2--2--2----------------------------------------------------|
 A|-------------------2----------------------------------------------------|
 E|-0-----0-----------0---------------------------------------------------| 

[Em] [B7] 
P.M P.M |-P.M-| P.M P.M P.M
 
 e|-0--0--------0--0-------0-----0-----------2--------2--------2--2---------|
 B|-0--0--------0--0-------0-----0-----------0--------0--------0--0---------|
 G|-0--0--0-0---0--0--0-0--0--0--0--0--0--0--2--2--2--2--2--2--2--2--2--2---|
 D|-2--2--2-2---2--2--2-2--2--2--2--2--2--2--1--1--1--1--1--1--1--1--1--1---|
 A|-2--2--------2--2-------2-----2-----------2--------2--------2--2---------|
 E|-0--0--------0--0-------0-----0------------------------------------------|

[Em] 
P.M
 
 e|-0-----0-----------0--0--0--0--------------------------------------------|
 B|-0-----0-----------0--0--0--0--------------------------------------------|
 G|-0--0--0--0--0--0--0--0--0--0--------------------------------------------|
 D|-2--2--2--2--2--2--2-----------------------------------------------------|
 A|-------------------2-----------------------------------------------------|
 E|-0-----0-----------0-----------------------------------------------------|

[Em] [B7] 
P.M P.M |-P.M-| P.M P.M P.M
 
 e|-0--0--------0--0-------0-----0-----------2--------2--------2--2---------|
 B|-0--0--------0--0-------0-----0-----------0--------0--------0--0---------|
 G|-0--0--0-0---0--0--0-0--0--0--0--0--0--0--2--2--2--2--2--2--2--2--2--2---|
 D|-2--2--2-2---2--2--2-2--2--2--2--2--2--2--1--1--1--1--1--1--1--1--1--1---|
 A|-2--2--------2--2-------2-----2-----------2--------2--------2--2---------|
 E|-0--0--------0--0-------0-----0------------------------------------------|

[Em] [D] [C] 
P.M
 
 e|-0-----0-----------0-----0-----0-----3-----2-----2-----3-----------------|
 B|-0-----0-----------0-----0-----0-----3-----3-----3-----3-----1----1------|
 G|-0--0--0--0--0--0--0-----0-----0-----2-----2-----2-----2-----0----0------|
 D|-2--2--2--2--2--2--2--2-----2-----0-----0-----0-----0--------2----2------|
 A|-------------------2--2-----2-----------------------------3-----3--------|
 E|-0-----0-----------0--0-----0--------------------------------------------|

[Em] [D] [C7] [B7] [Em] [D] 
 
 e|-----0-----0-----2-----2-----------------0-----0-----0-----0-----2-----2-|
 B|-----0-----0-----3-----3-----5-----4-----0-----0-----0-----0-----3-----3-|
 G|-----0-----0-----2-----2-----3-----2-----0-----0-----0-----0-----2-----2-|
 D|--2-----2-----0-----0--------5-----4--2-----2-----2-----2-----0-----0----|
 A|--2-----2-----------------3-----2-----2-----2-----2-----2----------------|
 E|--0-----0-----------------------------0-----0-----0-----0----------------|
 e|-------------------------------------------------------------------------|
 B|-------------------------------------------------------------------------|
 G|-------------------------------------------------------------------------|
 D|-------------------------------------------------------------------------|
 A|---x--2--x--2--x--0--x------------2--x--2--2--2--x--x--0--x--2-----------|
 E|-0----------------------0--0---0-----------------------------------------|

[Em] [B7] 
P.M P.M |-P.M-| P.M P.M P.M
 
 e|-0--0--------0--0-------0-----0-----------2--------2--------2--2---------|
 B|-0--0--------0--0-------0-----0-----------0--------0--------0--0---------|
 G|-0--0--0-0---0--0--0-0--0--0--0--0--0--0--2--2--2--2--2--2--2--2--2--2---|
 D|-2--2--2-2---2--2--2-2--2--2--2--2--2--2--1--1--1--1--1--1--1--1--1--1---|
 A|-2--2--------2--2-------2-----2-----------2--------2--------2--2---------|
 E|-0--0--------0--0-------0-----0------------------------------------------|

[Em] 
P.M
 
 e|-0-----0-----------0--0--0--0--------------------------------------------|
 B|-0-----0-----------0--0--0--0--------------------------------------------|
 G|-0--0--0--0--0--0--0--0--0--0--------------------------------------------|
 D|-2--2--2--2--2--2--2-----------------------------------------------------|
 A|-------------------2-----------------------------------------------------|
 E|-0-----0-----------0-----------------------------------------------------|

[Em] [B7] 
P.M P.M |-P.M-| P.M P.M P.M
 
 e|-0--0--------0--0-------0-----0-----------2--------2--------2--2---------|
 B|-0--0--------0--0-------0-----0-----------0--------0--------0--0---------|
 G|-0--0--0-0---0--0--0-0--0--0--0--0--0--0--2--2--2--2--2--2--2--2--2--2---|
 D|-2--2--2-2---2--2--2-2--2--2--2--2--2--2--1--1--1--1--1--1--1--1--1--1---|
 A|-2--2--------2--2-------2-----2-----------2--------2--------2--2---------|
 E|-0--0--------0--0-------0-----0------------------------------------------|

[Em] 
P.M
 
 e|-0-----0-----------0--0--0--0--------------------------------------------|
 B|-0-----0-----------0--0--0--0--------------------------------------------|
 G|-0--0--0--0--0--0--0--0--0--0--------------------------------------------|
 D|-2--2--2--2--2--2--2-----------------------------------------------------|
 A|-------------------2-----------------------------------------------------|
 E|-0-----0-----------0-----------------------------------------------------|

[Em] [B7] 
P.M P.M |-P.M-| P.M P.M P.M
 
 e|-0--0--------0--0-------0-----0-----------2--------2--------2--2---------|
 B|-0--0--------0--0-------0-----0-----------0--------0--------0--0---------|
 G|-0--0--0-0---0--0--0-0--0--0--0--0--0--0--2--2--2--2--2--2--2--2--2--2---|
 D|-2--2--2-2---2--2--2-2--2--2--2--2--2--2--1--1--1--1--1--1--1--1--1--1---|
 A|-2--2--------2--2-------2-----2-----------2--------2--------2--2---------|
 E|-0--0--------0--0-------0-----0------------------------------------------|

[Em] 
P.M
 
 e|-0-----0-----------0----------------------------------------------------|
 B|-0-----0-----------0----------------------------------------------------|
 G|-0--0--0--0--0--0--0----------------------------------------------------|
 D|-2--2--2--2--2--2--2----------------------------------------------------|
 A|-------------------2----------------------------------------------------|
 E|-0-----0-----------0----------------------------------------------------|

[Em] [B7] 
P.M P.M |-P.M-| P.M P.M P.M
 
 e|-0--0--------0--0-------0-----0-----------2--------2--------2--2---------|
 B|-0--0--------0--0-------0-----0-----------0--------0--------0--0---------|
 G|-0--0--0-0---0--0--0-0--0--0--0--0--0--0--2--2--2--2--2--2--2--2--2--2---|
 D|-2--2--2-2---2--2--2-2--2--2--2--2--2--2--1--1--1--1--1--1--1--1--1--1---|
 A|-2--2--------2--2-------2-----2-----------2--------2--------2--2---------|
 E|-0--0--------0--0-------0-----0------------------------------------------|

[Em] 
P.M P.M
 
 e|-0-----0-----------0----------------------------------------------------|
 B|-0-----0-----------0----------------------------------------------------|
 G|-0--0--0--0--0--0--0----------------------------------------------------|
 D|-2--2--2--2--2--2--2----------------------------------------------------|
 A|-------------------2----------------------------------------------------|
 E|-0-----0-----------0----------------------------------------------------|

(Chorus)
[B7] [Em] [D] 
P.M P.M P.M P.M P.M
 
 e|-2--------2--------2--2----------0-----0--------------0-----0-----2-----2|
 B|-0--------0--------0--0----------0-----0--------------0-----0-----3-----3|
 G|-2--2--2--2--2--2--2--2--2--2----0--0--0--0--0--0-----0-----0-----2-----2|
 D|-1--1--1--1--1--1--1--1--1--1----2--2--2--2--2--2--2-----2-----0-----0---|
 A|-2--------2--------2--2----------------------------2-----2---------------|
 E|---------------------------------0-----0-----------0-----0---------------|

[C] [Em] [D] [C7] [B7] [Em] 
 
 e|----2----2----0-----0-----0-----0-----2-----3----------------0-----0-----|
 B|----3----3----1-----1-----0-----0-----3-----3----5-----4-----0-----0-----|
 G|----2----2----0-----0-----0-----0-----2-----2----3-----2-----0-----0-----|
 D|-0-----0------2-----2--2-----2-----0-----0-------5-----4--2-----2--------|
 A|------------3----3-----2-----2-----------------3----2-----2-----2--------|
 E|-----------------------0-----0----------------------------0-----0--------|

[D] [C] [Em] [D] 
 
 e|----0-----0----2-----2-----2-----2-----0-----0-----0-----0-----2-----2---|
 B|----0-----0----3-----3-----3-----3-----1-----1-----0-----0-----3-----3---|
 G|----0-----0----2-----2-----2-----2-----0-----0-----0-----0-----2-----2---|
 D|-2-----2-----0----0-----0-----0--------2-----2--2-----2-----0-----0------|
 A|-2-----2----------------------------3-----3-----2-----2------------------|
 E|-0-----0----------------------------------------0-----0------------------|

(Chorus End)
 
 e|-------------------------------------------------------------------------|
 B|-------------------------------------------------------------------------|
 G|-------------------------------------------------------------------------|
 D|---x--2--x--2--x--0--x----------2--x--2--2--2--x--x--0--x--2----x--2--x--|
 A|-------------------------------------------------------------------------|
 E|0-----------------------0--0--0-------------------------------0----------|
 e|-------------------------------------------------------------------------|
 B|-------------------------------------------------------------------------|
 G|----0h1------------------------------------------------------------------|
 D|-2-------x--------------2--x--2--2--2--x--x--0--x--2---------------------|
 A|-------------------------------------------------------------------------|
 E|------------0--x--0--0---------------------------------------------------|

(Chorus)
[B7] [Em] [D] 
P.M P.M P.M P.M P.M
 
 e|-2--------2--------2--2----------0-----0--------------0-----0-----2-----2|
 B|-0--------0--------0--0----------0-----0--------------0-----0-----3-----3|
 G|-2--2--2--2--2--2--2--2--2--2----0--0--0--0--0--0-----0-----0-----2-----2|
 D|-1--1--1--1--1--1--1--1--1--1----2--2--2--2--2--2--2-----2-----0-----0---|
 A|-2--------2--------2--2----------------------------2-----2---------------|
 E|---------------------------------0-----0-----------0-----0---------------|

[C] [Em] [D] [C7] [B7] [Em] 
 
 e|----2----2----0-----0-----0-----0-----2-----3----------------0-----0-----|
 B|----3----3----1-----1-----0-----0-----3-----3----5-----4-----0-----0-----|
 G|----2----2----0-----0-----0-----0-----2-----2----3-----2-----0-----0-----|
 D|-0-----0------2-----2--2-----2-----0-----0-------5-----4--2-----2--------|
 A|------------3----3-----2-----2-----------------3----2-----2-----2--------|
 E|-----------------------0-----0----------------------------0-----0--------|

[D] [C] [Em] [D] 
 
 e|----0-----0----2-----2-----2-----2-----0-----0-----0-----0-----2-----2---|
 B|----0-----0----3-----3-----3-----3-----1-----1-----0-----0-----3-----3---|
 G|----0-----0----2-----2-----2-----2-----0-----0-----0-----0-----2-----2---|
 D|-2-----2-----0----0-----0-----0--------2-----2--2-----2-----0-----0------|
 A|-2-----2----------------------------3-----3-----2-----2------------------|
 E|-0-----0----------------------------------------0-----0------------------|

************************************
| P.M Palm Mute
| / slide up
| \ slide down
| h hammer-on
| p pull-off
| ~ vibrato
| + harmonic
| x Mute note
| b Bend
| pb Pre-bend
| br Bend release
| pbr Pre-bend release
| brb Bend release bend
************************************

Important: The song above is NOT stored on the Chordie server. The original song is hosted at www.guitaretab.com. Chordie works as a search engine and provides on-the-fly formatting. Chordie does not index songs against artists'/composers' will. To remove this song please click here.

Text color:
Chord color:
Chord grids: 
Font size:    
Page size: 

B7 C C7 D Em
Rate #1 of 10 versions

Login - add to songbook

SHARE PAGE  




You need to log in to post comments