Guitar Tabs, Chords and Lyrics
Server problems seems to be fixed. Chordie has been experiencing problems with songs disappearing. These issues now seems to be fixed, but still verifying the fix. If you find anything strange, please email admin@chordie.com.


For You  Kurt Nilsen

 
 --------------------------------------------------------------------------------------------------

For You - Kurt Nilsen
 
 --------------------------------------------------------------------------------------------------

Tabbed by: puzzling
Tuning: Standard EADGBe
Even though Kurt Nilsen plays leftie with a normal (right-hand) guitar,
I tabbed this song the standard way.
If you listen closely to the song, you can hear slight variations in the verses.
I have
given the verses a description (Lo-Lo, Hi-Lo etc.) so it's easier to remember what to
when you
have figured out the difference between Lo parts and Hi parts and just want to look at
order
at the bottom of the tab. Hope you enjoy!
Intro
E E E Q E E E Q E Q E E E 4x
 
 e||------------0-----------|---------0--------------||
 B||---------0------0-------|------0-------0---------||
 G||*-1h--2------------2----|-1---------------1-----*||
 D||*-----------------------|-----------------------*||
 A||------------------------|------------------------||
 E||--0-------------------0-|-0------------------0---||

Verse Lo-Lo
Q E Q E Q Q E Q E Q Q E E Q E E Q E E Q
[E] [E]  
 
 e|----------0------------|----------0------------|---------0----------0---|---------0----------0-|
 B|-------0-------0-------|-------0-------0-------|------0----------0------|------0----------0----|
 G|-13---------------13---|-11---------------11---|-9----------8-----------|-6----------4---------|
 D|-----------------------|-----------------------|------------------------|----------------------|
 A|-----------------------|-----------------------|------------------------|----------------------|
 E|--0--------------------|--0--------------------|-0----------0-----------|-0----------0---------|

E E E Q E Q Q E Q E Q Q E Q E Q Q E Q
Q
 
 e|-----------0-----------|---------0-------------|---------0--------------|---------0------------|
 B|--------0-------0------|------0-------0--------|------0-------0---------|------0-------0-------|
 G|-1h--2-------------2---|-4---------------4-----|-6---------------6------|-4---------------4----|
 D|-----------------------|-----------------------|------------------------|----------------------|
 A|-----------------------|-----------------------|------------------------|----------------------|
 E|-0---------------------|-0---------------------|-0----------------------|-0--------------------|

Verse Hi-Lo
Q E Q E Q Q E Q E Q Q E E Q E E Q E E
[E] [E]  
 
 e|----------0------------|----------0------------|----------0-----------0-|----------0----------0|
 B|-------0-------0-------|-------0-------0-------|-------0-----------0----|-------0----------0---|
 G|-13---------------13---|-11---------------11---|-14----------13---------|-11----------9--------|
 D|-----------------------|-----------------------|------------------------|----------------------|
 A|-----------------------|-----------------------|------------------------|----------------------|
 E|--0--------------------|--0--------------------|--0-----------0---------|--0----------0--------|

E E E Q E Q Q E Q E Q Q E Q E Q Q E Q
Q
 
 e|-----------0-----------|---------0-------------|---------0--------------|---------0------------|
 B|--------0-------0------|------0-------0--------|------0-------0---------|------0-------0-------|
 G|-1h--2-------------2---|-4---------------4-----|-6---------------6------|-4---------------4----|
 D|-----------------------|-----------------------|------------------------|----------------------|
 A|-----------------------|-----------------------|------------------------|----------------------|
 E|-0---------------------|-0---------------------|-0----------------------|-0--------------------|

Chorus
Q Q Q Q Q E Q E Q Q Q E S S E E E E Q H
 
 e|-----------0-----------|---------0-------------|------------------------|----------------------|
 B|------0---------0------|------0-------0--------|-----0------------------|----------------------|
 G|-9---------------------|-6---------------6-----|-8-------8h--9p-8-------|--------------8-------|
 D|-----------------------|-----------------------|------------------11--9-|---------9------------|
 A|-----------------------|-----------------------|------------------------|-11--11---------------|
 E|-0---------------------|-0---------------------|-0----------------------|----------------------|

Q E Q E Q Q E Q E Q Q Q E S S Q W
 
 e|---------0-------------|---------0-------------|------------------------|----------------------|
 B|------0-------0--------|------0-------0--------|------0-------------0---|----------------------|
 G|-9---------------9-----|-6---------------6-----|-8---------8h--9p-8-----|-11-------------------|
 D|-----------------------|-----------------------|------------------------|----------------------|
 A|-----------------------|-----------------------|------------------------|----------------------|
 E|-0---------------------|-0---------------------|-0----------------------|--0-------------------|

Verse Lo-Hi
Q E Q E Q Q E Q E Q Q E E Q E E Q E E Q
[E] [E]  
 
 e|----------0------------|----------0------------|---------0----------0---|---------0----------0-|
 B|-------0-------0-------|-------0-------0-------|------0----------0------|------0----------0----|
 G|-13---------------13---|-11---------------11---|-9----------8-----------|-6----------4---------|
 D|-----------------------|-----------------------|------------------------|----------------------|
 A|-----------------------|-----------------------|------------------------|----------------------|
 E|--0--------------------|--0--------------------|-0----------0-----------|-0----------0---------|

E E E Q E Q Q E Q E Q Q E Q E Q Q E Q
Q
 
 e|-----------0-----------|---------0-------------|---------0--------------|---------0------------|
 B|--------0-------0------|------0-------0--------|------0-------0---------|------0-------0-------|
 G|-1h--2-------------2---|-4---------------4-----|-6---------------6------|-8---------------8----|
 D|-----------------------|-----------------------|------------------------|----------------------|
 A|-----------------------|-----------------------|------------------------|----------------------|
 E|-0---------------------|-0---------------------|-0----------------------|-0--------------------|

Verse Hi-Lo
Q E Q E Q Q E Q E Q Q E E Q E E Q E E
[E] [E]  
 
 e|----------0------------|----------0------------|----------0-----------0-|----------0----------0|
 B|-------0-------0-------|-------0-------0-------|-------0-----------0----|-------0----------0---|
 G|-13---------------13---|-11---------------11---|-14----------13---------|-11----------9--------|
 D|-----------------------|-----------------------|------------------------|----------------------|
 A|-----------------------|-----------------------|------------------------|----------------------|
 E|--0--------------------|--0--------------------|--0-----------0---------|--0----------0--------|

E E E Q E Q Q E Q E Q Q E Q E Q Q E Q
Q
 
 e|-----------0-----------|---------0-------------|---------0--------------|---------0------------|
 B|--------0-------0------|------0-------0--------|------0-------0---------|------0-------0-------|
 G|-1h--2-------------2---|-4---------------4-----|-6---------------6------|-4---------------4----|
 D|-----------------------|-----------------------|------------------------|----------------------|
 A|-----------------------|-----------------------|------------------------|----------------------|
 E|-0---------------------|-0---------------------|-0----------------------|-0--------------------|

Chorus
Q Q Q Q Q E Q E Q Q Q E S S E E E E Q H
 
 e|-----------0-----------|---------0-------------|------------------------|----------------------|
 B|------0---------0------|------0-------0--------|-----0------------------|----------------------|
 G|-9---------------------|-6---------------6-----|-8-------8h--9p-8-------|--------------8-------|
 D|-----------------------|-----------------------|------------------11--9-|---------9------------|
 A|-----------------------|-----------------------|------------------------|-11--11---------------|
 E|-0---------------------|-0---------------------|-0----------------------|----------------------|

Q E Q E Q Q E Q E Q Q Q E S S Q W
 
 e|---------0-------------|---------0-------------|------------------------|----------------------|
 B|------0-------0--------|------0-------0--------|------0-------------0---|----------------------|
 G|-9---------------9-----|-6---------------6-----|-8---------8h--9p-8-----|-11-------------------|
 D|-----------------------|-----------------------|------------------------|----------------------|
 A|-----------------------|-----------------------|------------------------|----------------------|
 E|-0---------------------|-0---------------------|-0----------------------|--0-------------------|

Verse Hi-Lo
Q E Q E Q Q E Q E Q Q E E Q E E Q E E
[E] [E]  
 
 e|----------0------------|----------0------------|----------0-----------0-|----------0----------0|
 B|-------0-------0-------|-------0-------0-------|-------0-----------0----|-------0----------0---|
 G|-13---------------13---|-11---------------11---|-14----------13---------|-11----------9--------|
 D|-----------------------|-----------------------|------------------------|----------------------|
 A|-----------------------|-----------------------|------------------------|----------------------|
 E|--0--------------------|--0--------------------|--0-----------0---------|--0----------0--------|

E E E Q E Q Q E Q E Q Q E Q E Q Q E Q
Q
 
 e|-----------0-----------|---------0-------------|---------0--------------|---------0------------|
 B|--------0-------0------|------0-------0--------|------0-------0---------|------0-------0-------|
 G|-1h--2-------------2---|-4---------------4-----|-6---------------6------|-4---------------4----|
 D|-----------------------|-----------------------|------------------------|----------------------|
 A|-----------------------|-----------------------|------------------------|----------------------|
 E|-0---------------------|-0---------------------|-0----------------------|-0--------------------|

Verse Hi-Hi
Q E Q E Q Q E Q E Q Q E E Q E E Q E E
[E] [E]  
 
 e|----------0------------|----------0------------|----------0-----------0-|----------0----------0|
 B|-------0-------0-------|-------0-------0-------|-------0-----------0----|-------0----------0---|
 G|-13---------------13---|-11---------------11---|-14----------13---------|-11----------9--------|
 D|-----------------------|-----------------------|------------------------|----------------------|
 A|-----------------------|-----------------------|------------------------|----------------------|
 E|--0--------------------|--0--------------------|--0-----------0---------|--0----------0--------|

E E E Q E Q Q E Q E Q Q E Q E Q Q E Q
Q
 
 e|-----------0-----------|---------0-------------|---------0--------------|---------0------------|
 B|--------0-------0------|------0-------0--------|------0-------0---------|------0-------0-------|
 G|-1h--2-------------2---|-4---------------4-----|-6---------------6------|-8---------------8----|
 D|-----------------------|-----------------------|------------------------|----------------------|
 A|-----------------------|-----------------------|------------------------|----------------------|
 E|-0---------------------|-0---------------------|-0----------------------|-0--------------------|

Bridge
Q E Q E Q Q E Q E Q E E E Q E Q Q E Q
Q
 
 e|---------0-------------|---------0-------------|-----------0------------|---------0------------|
 B|------0-------0--------|------0-------0--------|--------0-------0-------|------0-------0-------|
 G|-4---------------4-----|-4---------------4-----|-1h--2-------------2----|-2---------------2----|
 D|-----------------------|-----------------------|------------------------|----------------------|
 A|-----------------------|-----------------------|------------------------|----------------------|
 E|-0---------------------|-0---------------------|-0----------------------|-0--------------------|

Q E Q E Q Q E Q E Q Q E Q E Q Q E Q
Q
 
 e|---------0-------------|---------0-------------|---------0--------------|---------0------------|
 B|------0-------0--------|------0-------0--------|------0-------0---------|------0-------0-------|
 G|-4---------------4-----|-4---------------4-----|-6---------------6------|-8---------------8----|
 D|-----------------------|-----------------------|------------------------|----------------------|
 A|-----------------------|-----------------------|------------------------|----------------------|
 E|-0---------------------|-0---------------------|-0----------------------|-0--------------------|

Chorus
Q Q Q Q Q E Q E Q Q Q E S S E E E E Q H
 
 e|-----------0-----------|---------0-------------|------------------------|----------------------|
 B|------0---------0------|------0-------0--------|-----0------------------|----------------------|
 G|-9---------------------|-6---------------6-----|-8-------8h--9p-8-------|--------------8-------|
 D|-----------------------|-----------------------|------------------11--9-|---------9------------|
 A|-----------------------|-----------------------|------------------------|-11--11---------------|
 E|-0---------------------|-0---------------------|-0----------------------|----------------------|

Q E Q E Q Q E Q E Q Q Q E S S Q W
 
 e|---------0-------------|---------0-------------|------------------------|----------------------|
 B|------0-------0--------|------0-------0--------|------0-------------0---|----------------------|
 G|-9---------------9-----|-6---------------6-----|-8---------8h--9p-8-----|-11-------------------|
 D|-----------------------|-----------------------|------------------------|----------------------|
 A|-----------------------|-----------------------|------------------------|----------------------|
 E|-0---------------------|-0---------------------|-0----------------------|--0-------------------|

Verse Lo-Hi
Q E Q E Q Q E Q E Q Q E E Q E E Q E E Q
[E] [E]  
 
 e|----------0------------|----------0------------|---------0----------0---|---------0----------0-|
 B|-------0-------0-------|-------0-------0-------|------0----------0------|------0----------0----|
 G|-13---------------13---|-11---------------11---|-9----------8-----------|-6----------4---------|
 D|-----------------------|-----------------------|------------------------|----------------------|
 A|-----------------------|-----------------------|------------------------|----------------------|
 E|--0--------------------|--0--------------------|-0----------0-----------|-0----------0---------|

E E E Q E Q Q E Q E Q Q E Q E Q Q E Q
Q
 
 e|-----------0-----------|---------0-------------|---------0--------------|---------0------------|
 B|--------0-------0------|------0-------0--------|------0-------0---------|------0-------0-------|
 G|-1h--2-------------2---|-4---------------4-----|-6---------------6------|-8---------------8----|
 D|-----------------------|-----------------------|------------------------|----------------------|
 A|-----------------------|-----------------------|------------------------|----------------------|
 E|-0---------------------|-0---------------------|-0----------------------|-0--------------------|

Verse Hi-Hi
Q E Q E Q Q E Q E Q Q E E Q E E Q E E
[E] [E]  
 
 e|----------0------------|----------0------------|----------0-----------0-|----------0----------0|
 B|-------0-------0-------|-------0-------0-------|-------0-----------0----|-------0----------0---|
 G|-13---------------13---|-11---------------11---|-14----------13---------|-11----------9--------|
 D|-----------------------|-----------------------|------------------------|----------------------|
 A|-----------------------|-----------------------|------------------------|----------------------|
 E|--0--------------------|--0--------------------|--0-----------0---------|--0----------0--------|

E E E Q E Q Q E Q E Q Q E Q E Q Q E Q
Q
 
 e|-----------0-----------|---------0-------------|---------0--------------|---------0------------|
 B|--------0-------0------|------0-------0--------|------0-------0---------|------0-------0-------|
 G|-1h--2-------------2---|-4---------------4-----|-6---------------6------|-8---------------8----|
 D|-----------------------|-----------------------|------------------------|----------------------|
 A|-----------------------|-----------------------|------------------------|----------------------|
 E|-0---------------------|-0---------------------|-0----------------------|-0--------------------|

Outro
E E E Q E Q Q E Q E Q 4x W
 
 e||------------0-----------|---------0--------------||-0----------------------|
 B||---------0-------0------|------0-------0---------||-0----------------------|
 G||*-8h--9-------------9---|-8---------------8-----*||-9----------------------|
 D||*-----------------------|-----------------------*||------------------------|
 A||------------------------|------------------------||------------------------|
 E||--0---------------------|-0----------------------||-0----------------------|

| Order
 
 | -----------

| Intro
| Verse Lo-Lo
| Verse Hi-Lo
| Chorus
| Verse Lo-Hi
| Verse Hi-Lo
| Chorus
| Verse Hi-Lo
| Verse Hi-Hi
| Bridge
| Chorus
| Verse Lo-Hi
| Verse Hi-Hi
| Outro
| S sixteenth note
| E eighth note
| Q quarter note
| W whole note
| h hammer-on
| p pull-off
=================================================================================================

Important: The song above is NOT stored on the Chordie server. The original song is hosted at www.guitaretab.com. Chordie works as a search engine and provides on-the-fly formatting. Chordie does not index songs against artists'/composers' will. To remove this song please click here.

Text color:
Chord color:
Chord grids: 
Font size:    
Page size: 

E
Rate #1 of 1 versions

Jango Player

Login - add to songbook

SHARE PAGE  



You need to log in to post comments