Guitar Tabs, Chords and Lyrics
Server problems seems to be fixed. Chordie has been experiencing problems with songs disappearing. These issues now seems to be fixed, but still verifying the fix. If you find anything strange, please email admin@chordie.com.


Stars Tonight  Lady Antebellum

 
 E|--0--0--------0--0--|
 E|--0--0--0--0--0--0--|
 B|--0--0--1--1--0--0--|
 G|--1--1--1--1--1--1--|
 D|--2--2--1--1--2--2--|
 A|--2--2--0--0--2--2--|
 E|--0--0--------0--0--|
 E|--0--0--------0--0--|
 E|--0--0--0--0--0--0--|
 B|--0--0--1--1--0--0--|
 G|--1--1--1--1--1--1--|
 D|--2--2--1--1--2--2--|
 A|--2--2--0--0--2--2--|
 E|--0--0--------0--0--|
 E|--0--0--0--0--0--0-------------------------------|
 B|--0--0--1--1--0--0-------------------------------|
 G|--1--1--1--1--1--1--7/9--9--9--9--9--9--9--9--9\-|
 D|--2--2--1--1--2--2-------------------------------|
 A|--2--2--0--0--2--2-------------------------------|
 E|--0--0--------0--0-------------------------------|

(This part is repeated for most of the song and will be shown as E A E)
Verse 1:
[E]Gi[A]rl[E]s in their heels and a skinny pair of blue jean[E]s[A] [E]
Boys in [E]bl[A]ac[E]k pearl buttons looking just like Springsteen[E] [A] [E]
[E]Ma[A]ma[E] says why you wanna play in a silly rock'n'roll band?[E] [A] [E]
Well if you [E]st[A]oo[E]d here Mama, I know you'd understand[E] [A] [E]
It's the [C#m]lights, it's the [B]high
It's the [A]roar of the crowd, on a [B]Friday night
Chorus:
Everybody's screamin' out [A]yeah, [E]yeah, [B]yeah
E[C#m]verybody's sing it o[B]ut yeah[A], yeah[E], yeah[B]
Get on your feet if it [A]feels good, i[E]t feels right
Cause [B]we're all stars tonight
So sing it out, [A]yeah, [E]yeah, [B]yeah
[E] [A] [E] Hey hey
Verse 2:
Let's all [E]ge[A]t [E]a little rowdy, gonna party all night long[E] [A] [E]
And [E]bo[A]ys[E] sway with your girls when we play a little slow song[E] [A] [E]
Put your [E]ha[A]nd[E]s in the air, shine a lighter or a cell phone[E] [A] [B]
You better [E]bu[A]y [B]another round, we ain't going home[E] [A] [B]
On the [C#m]floor, in the [B]stands
[A] Tonight we're all in the [B]band
Chorus 2:
[A] [E] [B] 
Everybody's screamin' out yeah, yeah, yeah
E[C#m]verybody's sing it o[B]ut yeah[A], yeah[E], yeah[B]
Get on your feet if it [A]feels good, i[E]t feels right
Cause [B]we're all stars tonight
So sing it out, [A]yeah, [E]yeah, [B]yeah
Solo: C#m B C#m, C#m B A, C#m B C#m, C#m B A B
[A] [E] [B] 
Everybody's screamin' out yeah, yeah, yeah
E[C#m]verybody's sing it o[B]ut yeah[A], yeah[E], yeah[B]
Repeat Chorus
Outro:
[E] [A] [E] Hey hey
[E] [A] [E] Yeah yeah yeah
[E] [A] [E] Hey hey
[E] [A] [E] Oohh yeah
I'm not 100% sure about the solo but it seems correct. 1st tab was completely wrong

Important: The song above is NOT stored on the Chordie server. The original song is hosted at www.guitaretab.com. Chordie works as a search engine and provides on-the-fly formatting. Chordie does not index songs against artists'/composers' will. To remove this song please click here.

Text color:
Chord color:
Chord grids: 
Font size:    
Page size: 

A B C#m E
Rate #1 of 5 versions

Jango Player

Login - add to songbook

SHARE PAGE  



You need to log in to post comments