Guitar Tabs, Chords and Lyrics
Server problems seems to be fixed. Chordie has been experiencing problems with songs disappearing. These issues now seems to be fixed, but still verifying the fix. If you find anything strange, please email admin@chordie.com.


Cold as Stone  Lady Antebellum

Azncocoluver did a great job with this song. Just a couple changes I think make it sound
even better.
Capo 1
Intro:
 
 ---------------------------------------------------------------------------|
 ---------------------------------------------------------------------------|
 -------------------------------------5h7-7-5-5h7-7-5---5h7-7-5-5h7-7/9p5---|
 -3h5-5-5p3-2-3-5---3h5-5-5p3-2-3-5-------------------7-------------------7-|
 -----------------3-----------------3---------------------------------------|
 ---------------------------------------------------------------------------|

[F]She left town e[G]arly on a F[C]riday.
[F]Headin' down to [G]family in New [Am]Orleans.
Said she ne[F]eded to feel the s[G]un on her face.
[C]Talk it out with h[Am]erself, try to [G]get things [F]straight.
Lord, a[Am]ll I know is [G]I don't wanna bre[F]athe.
Wish I was c[Am]old [G]as [C]stone,
Then I wouldn't f[Am]eel [G]a [C]thing.
Wish I didn't h[Am]ave [G]this [C]heart,
Then I wo[G]uldn't know the sting of the [C]rain.
I could stand [Am]strong [G]and [C]still,
Watching you [Am]walk [G]awa[C]y.
I wouldn't [Dm]hurt like this,
Or [Am]feel so all [G]alone.
I wish I was cold as stone.
 
 ---------------------|
 ---------------------|
 -5h7-7-5-5h7-7/9p5---|
 -------------------7-|
 ---------------------|
 ---------------------|

[F]Almost turned aro[G]und in Miss[C]issippi.
Pulled o[F]ver on the sh[G]oulder along the [Am]way.
[F]Thought by now [G]I'd be fine,
But [C]all these tears are [Am]blurring [G]every [F]line,
And I think b[G]ack to when you were mine.
Wish I was c[Am]old [G]as [C]stone,
Then I wouldn't f[Am]eel [G]a [C]thing.
Wish I didn't h[Am]ave [G]this [C]heart,
Then I wo[G]uldn't know the sting of the [C]rain.
I could stand [Am]on [G]my [C]own,
Letting your [Am]memo[G]ry [C]fade.
I wouldn't [Dm]hurt like this,
Or [Am]feel so all [G]alone.
I wish I was cold as stone.
 
 ---------------------------|
 ---------------------------|
 -0h2---2h4---4h5---5-4-2-0-|
 -----2-----2---------------|
 ---------------------------|
 ---------------------------|

Yeah, it's g[Am]onna take [G]forever to get [F]over you.
Oh, and [Am]I don't think this [G]pain's gonna go [F]away.
Oh, [Am]scars [G]left [C]when it's [Am]said [G]and [C]done rema[Dm]in.
Am G C x2
I wish I was [Am]cold [G]as [C]stone.
I wish I was [Am]cold [G]as [C]stone.
Wish I was c[Am]old [G]as [C]stone,
Then I wouldn't f[Am]eel [G]a [C]thing.
Wish I didn't h[Am]ave [G]this [C]heart,
Then I wo[G]uldn't know the sting of the [F]rain.
I could stand [Am]strong [G]and [C]still,
Watching you [Am]walk [G]awa[C]y.
I wouldn't [Dm]hurt like this,
Or [Am]feel so all [G]alone.
I wish I was cold as stone.
Am G C x2
Any corrections email me at hulanic@gmail.com

Important: The song above is NOT stored on the Chordie server. The original song is hosted at www.guitaretab.com. Chordie works as a search engine and provides on-the-fly formatting. Chordie does not index songs against artists'/composers' will. To remove this song please click here.

Text color:
Chord color:
Chord grids: 
Font size:    
Page size: 

Am C Dm F G
Rate #0 of 4 versions

Jango Player

Login - add to songbook

SHARE PAGE  




You need to log in to post comments