Guitar Tabs, Chords and Lyrics
Server problems seems to be fixed. Chordie has been experiencing problems with songs disappearing. These issues now seems to be fixed, but still verifying the fix. If you find anything strange, please email admin@chordie.com.


Wanted You More  Lady Antebellum

 
 -----------------------------------------------------------------------------

WANTED YOU MORE - Lady Antebellum
 
 -----------------------------------------------------------------------------

Tabbed by: Just Ethan
Tuning: Standard, Capo 3
Most of the song is simple. You will play Bm, G, D, and A throughout a majority of the song.
Intro
Guitar 1 w/Delay x2
 
 e|--------------------------------------------------------------------------|
 B|--------------------------------------------------------------------------|
 G|--------------------------------------------------------------------------|
 D|--------------------2h4p2------------------------2h4p2--------------------|
 A|-0h2p0--4---4---5---------5---0h2p0--4---4---5---------5------------------|
 E|0---------0---0---0--------------------0---0---0--------------------------|

. . . . . . .
 
 e|--------------------------------------------------------------------------|
 B|--------------------------------------------------------------------------|
 G|--------------------------------------------------------------------------|
 D|--------------------2h4p2---------------2-------2-------------------------|
 A|-0h2p0--4---4---5---------5---------4-------4-------(7)(7)----------------|
 E|----------0---0---0---------------0---0---0---0---0-----------------------|

. . . . . . . .
Guitar 2 (Piano notes)*
 
 e|-----------5-------------5---------------5---7----------------------------|
 B|----3---3---------3---3-----------3---3-------7---------------------------|
 G|---4-------------4--------------4-----------------------------------------|
 D|--0-------------0--------------0------------------------------------------|
 A|-0-------------0--------------0-------------------------------------------|
 E|0-------------0--------------0--------------------------------------------|

*Comes in in 2nd half of intro
I kept wa[Bm]iting on a rea[G]son
And a c[D]all that never c[A]ame
No I ne[Bm]ver, saw it co[G]min'
Somethin' i[D]n you
Must have chan[A]ged
All the w[Bm]ords unspoken
Promi[G]ses broken
I cri[D]ed for so lo[A]ng.
Wasted t[Bm]oo much time
Should have se[G]en the signs.
Now I kn[D]ow, just what went wr[A]ong
I guess I wanted you m[Bm]ore
A[G]nd looking back now I'm s[D]ur[A]e
I wanted you [Bm]more
[G]I guess I wanted you [D]mo[A]re
All the nigh[Bm]ts we spent just talki[G]n'
Of the thin[D]gs we wanted out of li[A]fe (out of life)
Makin' plan[Bm]s and dreams toget[G]her
I wish I'd [D]seen I was just too b[A]lind
My he[Bm]art was open
Expos[G]ed and hoping
For y[D]ou to lay it on the l[A]ine
But in the [Bm]end it seemed
There was [G]no room for me
Still I trie[D]d, to change your m[A]ind.
I guess I wanted you m[Bm]ore
A[G]nd looking back now I'm s[D]ur[A]e
I wanted you [Bm]more
[G]I guess I wanted you [D]mo[A]re
[Bm] O[G]hhh, I don't n[D]eed you
I don't n[A]eed you anym[Bm]ore[G] [D] [D] [A]
(Play 2nd Half of Intro here)
I guess I wanted you m[Bm]ore
A[G]nd looking back now I'm s[D]ur[A]e
I wanted you [Bm]more
[G]I guess I wanted you [D]mo[A]re
[Bm] [G] I don't n[D]eed you
I don't n[A]eed you anym[Bm]ore[G] [D] [D] [A]
************************************
| h hammer-on
| p pull-off
|(x) harmonic
| . Mute note
************************************
This is my first tab, but I feel it's fairly complete and accurate. Ratings/Feedback
appreciated. UG may suggest different, but play Bm as follows:
e|-2-|
B|-3-|
G|-4-|
D|-4-|
A|-2-|
E|---|

Important: The song above is NOT stored on the Chordie server. The original song is hosted at www.guitaretab.com. Chordie works as a search engine and provides on-the-fly formatting. Chordie does not index songs against artists'/composers' will. To remove this song please click here.

Text color:
Chord color:
Chord grids: 
Font size:    
Page size: 

A Bm D G
Rate #2 of 4 versions

Login - add to songbook

SHARE PAGE  




You need to log in to post comments