Guitar Tabs, Chords and Lyrics
Server problems seems to be fixed. Chordie has been experiencing problems with songs disappearing. These issues now seems to be fixed, but still verifying the fix. If you find anything strange, please email admin@chordie.com.


Downtown  Lady Antebellum

Lady Antebellum "Downtown"
(intro)
 
 e|-----------------------------------------------------------------------------|
 B|-----------------------------------------------------------------------------|
 G|-----------------------------------------------------------------------------|
 D|-2-2-2-4-2-4-------2-2-2-4-2-4-----------2-4-2-4-----------2-4-2-4-----------|
 A|-------------4-2-4-------------4-4-2-0-0---------4-4-2-0-0---------4-4-2-0-0-|
 E|-----------------------------------------------------------------------------|
 e|-9-7-5-4-9-7-5-4-5-6r-------4-4h5-4-|
 B|-7-5-3-2-7-5-3-2------5-5-7---------|
 G|-6-4-2-1-6-4-2-1--------------------|
 D|------------------------------------|
 A|------------------------------------|
 E|------------------------------------|

(verse)
Well,[E] all the parties on the streets are talking, store front mannequins sleeping in lights.
[A] We used to smoke while we were jaywalking like it was your birthday every other saturday night.
[E] Knew The bands so we never payed our cover.
[E] Wrote our names on the bathroom tiles.
[A] We never dressed to impress all the others,
[A]They would let us in on a laid back kind of [B]style.
[B]But Boy you know it's been a while.
(chorus)
I don't know [E]why you don't take me down town like you got anywhere better to be.
Talk it [A]up and give me the go round round like a good time tease.
I'm only [E]countin' on your cancellation,
[E]Then I should be countin' on you at my door.
Did you [A]forget about how we went around,
[A]I don't know why you don't take me downtown anymo[E]re, ohhhhhhhh anym[A]ore.
 
 e|-9-7-5-4-9-7-5-4-5-6r-------4-4h5-4-|
 B|-7-5-3-2-7-5-3-2------5-5-7---------|
 G|-6-4-2-1-6-4-2-1--------------------|
 D|------------------------------------|
 A|------------------------------------|
 E|------------------------------------|

(verse)
[E] I got some platforms sitting in the corner.
[E] They wanna stroll on a city sidewalk.
[A] I got a dress that'll show a little uhhh uh,
[A]but you ain't getting uhh ohh if you don't come pick me [B]up (damn),
[B]Show me off (wow), you might be tired but I'm not!
(chorus)
And I don't know [E]why you don't take me down town like you got anywhere better to be.
Talk it [A]up and give me the go round round like a good time tease.
I'm only [E]countin' on your cancellation,
[E]Then I should be countin' on you at my door.
Did you [A]forget about how we went around,
[A]I don't know why you don't take me downtown any[E]more.
(instrumental)
 
 e|------------------------------------------------|
 B|--------------------------------------------5-5-|
 G|-----------------------------------------s6-----|
 D|------------------------2---4b-4br-2------------|
 A|----------------2---2-4---4----------4-2--------|
 E|-0-0-0-0-0-0-s4---4-----------------------------|
 e|----5---5-5-5-5----9---9-9-9-----12----12-12-12-----17----17-15brb-|
 B|-s5---5---------s7---7-------s10----10----------s14----14----------|
 G|-------------------------------------------------------------------|
 D|-------------------------------------------------------------------|
 A|-------------------------------------------------------------------|
 E|-------------------------------------------------------------------|

(chorus-out)
(no chord)
I don't know why you don't take me down town like you got anywhere better to be.
Talk it up and give me the go round round like a good time tease.
I'm only [E]countin' on your cancellation, then I should be countin' on you at my door.
Did you [A]forget about how we went around,
[A]I don't know why you don't take me downtown anymore. [E] Ohhh anym[A]ore.
2x
 
 e|-----------------------------------------------------------------------------|
 B|-----------------------------------------------------------------------------|
 G|-----------------------------------------------------------------------------|
 D|-2-2-2-4-2-4-------2-2-2-4-2-4-----------2-4-2-4-----------2-4-2-4-----------|
 A|-------------4-2-4-------------4-4-2-0-0---------4-4-2-0-0---------4-4-2-0-0-|
 E|-----------------------------------------------------------------------------|
 e|-9-7-5-4-9-7-5-4-5-6r-------4-4h5-4-|
 B|-7-5-3-2-7-5-3-2------5-5-7---------|
 G|-6-4-2-1-6-4-2-1--------------------|
 D|------------------------------------|
 A|------------------------------------|
 E|------------------------------------|

Yeaaaaah don't know [E]why you don't take me downtown,
[E]I don't know why you don't take me downtown anym[A]ore.
I just don't get it.[E]

Important: The song above is NOT stored on the Chordie server. The original song is hosted at www.guitaretab.com. Chordie works as a search engine and provides on-the-fly formatting. Chordie does not index songs against artists'/composers' will. To remove this song please click here.

Text color:
Chord color:
Chord grids: 
Font size:    
Page size: 

A B E
Rate #2 of 4 versions

Jango Player

Login - add to songbook

SHARE PAGE  




You need to log in to post comments