Guitar Tabs, Chords and Lyrics
Major upgrade!! After one year development the new version of Chordie is now online! Please give feedback.


Last Purple Sky   Lake of Tears

 
 -----------------------------|
 ----------------------------o|
 -----------------------------|
 --------0------------0------o|
 -----------------------------|
 0000000-----0000000----------|

 


 


 The "D" chord is always strummed until the next riff comes along


 


 [-----]  


 [-----]  


 [-----]  


 [--7--]  


 [--5--]--0-- strum up and down


 


 this is the intro riff and the chorus also.


 


 

 
 -----------------------------|
 -----------------------------|
 ---7--7---12---10--9--7---7--|
 ---5--5---10---8---7--5---5--|
 ---0--0-------------------0--|
 ---------------------|-----------------------------------|
 ---------------------|-----------------------------------|
 ----7---9-10--12--14-|----12--10--9--7-----10---9--7--7--|
 ----5---7-8---10--12-|----10--8---7--5-----8----7--5--5--|
 ---------------------|--------------------------------0--|

 


 


 Verse: all of them are the same


 


 p.m-- x2 verse 1 & 2


 

 
 -------------------------------|--------------------------------------|
 -------------------------------|--------------------------------------|
 -------------------------------|--------------------------------------|
 ----7--------7--------9--10--7-|---7-------------7--------------------|
 ----5--------5--------7--8---5-|---5-5555555555--5-555555555----------|
 ----0--000000---00000----------|--------------------------------------|
 -----------------------------------------------------------------------------|
 -----------------------------------------------------------------------------|
 ----5---------5-----------7---------7----------5----------5----------9--10-7-|
 ----3-3333333-3-3333333---5-5555555-5-5555555--3-3333333--3-3333333--7--8--5-|
 -----------------------------------------------------------------------------|

 


 


 inter-choral riff


 

 
 p.m---------------------------------------|
 ------------------------------------------|
 ------------------------------------------|
 ------------------------------------------|
 ------------------------------------------|
 -0-0-0-0-0-0-0-0-0-0-0-0-0-0-0-0-0-0-0----|
 -0-0-0-0-0-0-0-0-0-0-0-0-0-0-0-0-0-0-0----|


Important: The song above is NOT stored on the Chordie server. The original song is hosted at www.guitaretab.com. Chordie works as a search engine and provides on-the-fly formatting. Chordie does not index songs against artists'/composers' will. To remove this song please click here.

This song is displayed as text-only. Transposing and tuning is only available for chordpro-songs.
Rate #3 of 3 versions

Login - add to songbook

SHARE PAGE  




You need to log in to post comments