Guitar Tabs, Chords and Lyrics
Major upgrade!! After one year development the new version of Chordie is now online! Please give feedback.


Grace  Lamb of God

Wrath
I put some fingering positions on some of the trickier riffs and Stroke positioning as well.
I = Index Finger
M = Middle Finger
R = Ring Finger
P = Pinky
D = Downstroke
U = Upstroke
A = Accent
For other marking legends, see the bottom of the score.
Note: Please pay attention to the Musical direction of the score. Coda and Segnos are
clearly marked.
Transcribed by Seth Sanders [livetolieanotberday@botrmail.com]
For the rhythm Slashes in the solo, here are the chords.
[A5]8 8 x x x x
[F#5]5 5 x x x x
[Bm/D]1 3 x x x x
[C#5]0 0 x x x x
[B5]x 3 5 x x x
[F#m/C#]0 1 5 x x x
Gtr I (C# G# C# F# A# D#) - 'Rhythm Guitar I - Distortion w/Reverb'
Gtr II (C# G# C# F# A# D#) - 'Rhythm Guitar II - Distortion w/Reverb'
Gtr III (C# G# C# F# A# D#) - 'Lead Guitar I - Distortion w/Reverb and Boost'
Gtr IV (C# G# C# F# A# D#) - 'Lead Guitar II - Distortion w/Reverb and Boost'
Gtr V (C# G# C# F# A# D#) - 'Clean Guitar - Lead I w/Reverb'
Gtr VI (C# G# C# F# A# D#) - 'Clean Guitar - Lead II w/Reverb'
Intro
Q=122
[E/A] [C#m/F#]  
[4/4] Gtr V
~~~
|-3--|
Q. E S S S E E E E E E E E E E E
 
 |--------------------------|---------------------|
 |--6----/10p8h10p8-6-/10---|-6s8-8s10-10\-3-3s=6-|
 |-(x)--------------------7-|---------------------|
 |--0-----------------------|---------------------|
 |--------------------------|---------------------|
 |--------------------------|---------------------|

|
| Gtr VI
| ~~~
| |-3--|
| Q. E S S S E E E E E E E E E E E
 
 |-(5)----------------------|---------------------|
 |--3-----/6p5h=6p5S3h==6---|--------------6-6s10-|
 |------------------------3-|--------------x-x----|
 |--------------------------|-3s5-5s=7--7--3-3s=7-|
 |--------------------------|---------------------|
 |--------------------------|---------------------|

[G#madd11/C#] ~~[Emaj7/Ab] [Ebmaj7sus4/Ab]
Q +E e S S S S S S S S +S S S S S S S S S S S S S S S S
 
 |----------------------------------|-----------------------------------|
 |--6--(6)\-/8-10p8p6-8p6-----------|-----------------------------------|
 |------------------------9p7h9pb10r|=(9)p7p5-9p7p5---7p5-----5---------|
 |----------------------------------|---------------8-----8p7---8p7p5---|
 |----------------------------------|---------------------------------8-|
 |----------------------------------|-----------------------------------|

|
| ~~~~~~~~~~~~~~~~~~~~~~~~~~~~~~~~~~~~~~~~~~~~~~~~~~~~~~~~~~~~~~~
| W Q Q Q Q
 
 |----------------------------------|-----------------------------------|
 |-10-------------------------------|-----------------------------------|
 |--x-------------------------------|-----------------------------------|
 |--7-------------------------------|-----------------------------------|
 |----------------------------------|-----------------------------------|
 |----------------------------------|-/8--------7-------5-------2-------|

~~~ ~~
|-3-|
Q. E S S S E E E E E E E E +E E E W
 
 |---------------------|-----------------------|-----------|
 |---------------------|-----------------------|-----------|
 |--7----7-5h7p5---5---|-----------------------|-----------|
 |---------------8---8-|-8s7-7S8-8pb10r(8)p7---|-----------|
 |---------------------|---------------------8S|=12--------|
 |---------------------|-----------------------|-----------|

|
| ~~~ ~~
| |-3-|
| Q. E S S S E E E E E E E E +E E E W
 
 |---------------------|-----------------------|-----------|
 |--6------------------|-----------------------|-----------|
 |-(x)---3-2h3p2---2---|-----------------------|-----------|
 |--3------------5---5-|-5s3-3S5-5pb7r=(5)p3p0h|==3--------|
 |-(x)-----------------|-----------------------|-----------|
 |--3------------------|-----------------------|-----------|

~~~~~~~~ ~~~~~~~~~~
|-3-|
S S S S S S S +S S S S S +S S S S S
 
 |-----------------------------------------------|
 |---------------------5h6p5---------------------|
 |-------------5b7-(5)-------7b9==(7)r=7p=5p3p0--|
 |-------3h5h7-----------------------------------|
 |-3h4h5-----------------------------------------|
 |-----------------------------------------------|

|
| ~~~~~~~~~~
| Q S S +S S S S S +S +S S S S
 
 |-----------------------------------------------|
 |-----------x-----------------------------------|
 |-----------x-----------7p5---------------------|
 |-----------x-x-------x-x-x---------------------|
 |-----------x-3b5-(3)-x-----5b7==(5)r(5)--------|
 |----------------------------------------0h3-x--|

I M R R M M I I
~~~~~~~~~~~ PM
 
 |--3--| |--3---|

Q. E E S S S E E S S S S S S S S S S S S s S S S S
 
 |-----------------------------|-----------------------------------------------------|
 |-/11----11-11-10h11p10p=8----|-10p9p===8--------8----------------------------------|
 |--------------------------10-|-----------10p=9----10p=9p=7h10p=9p=7-----9p=7-------|
 |-----------------------------|--------------------------------------11-------11p=7-|
 |-----------------------------|-----------------------------------------------------|
 |-----------------------------|-----------------------------------------------------|

|
| ~~~~~~~~~~~ PM
| |--3--|
| Q. E E S S S E E S S S S S S S S S S S S S S S S
 
 |-----------------------------|-----------------------------------------------------|
 |-/15----15-15-13h15p13p11----|-13p==11---------11----------------------------------|
 |--(x)---------------------14-|-----------14p12----14p12p10-14p12p10----12p10-------|
 |---0-------------------------|--------------------------------------14-------14p10S|
 |---0-------------------------|-----------------------------------------------------|
 |---0-------------------------|-----------------------------------------------------|

~~~ [C#] [Eb] [E] [Eb] [C#] [F#]PM[G#]
Q +E E E E E E E E E E E E E E
 
 |-------------------------------|--------------------------|
 |-------------------------------|--------------------------|
 |-----------/7--7--/9---9--/10--|-10--/9---9S=7---7\-------|
 |-[7]--(7)\--x-(x)-(x)-(x)--(x)-|-(x)-(x)-(x)(x)-(x)-5-5s7-|
 |-----------/5--5--/7---7---/8--|--8--/7---7S=5---5\-------|
 |-------------------------------|--------------------------|

| B Pitch ALL LEGATO
| PM PM PM PM PM-----|
| Q. E E E E E E E E E E E E E
 
 |-------------------------------|--------------------------|
 |-------------------------------|--------------------------|
 |-------------------------------|--------------------------|
 |-!7----------------------------|--------------------------|
 |-!0----------------------------|--------------------------|
 |-!0---------0--0---2---2----3--|--3---2---2--0---0--5-5s7-|

Q=150
[A]~~~~~~~~~~~[G#]~~~~~~~~~~~~~ [C#]~~~~~~~~~~~~~~~[C#]
W H Q +E +E W +W
 
 |----------|------------------|----------|-----------------||
 |----------|------------------|----------|-----------------||
 |----------|------------------|----------|-----------------||
 |-8--------|--7---------------|----------|-----------------||
 |----------|-------3--(3)-(3)S|=5--------|-(5)-------------||
 |----------|------------------|----------|-----------------||

|
| ~~~~~~~~~~~~~~
| W W W +W
 
 |----------|------------------|----------|-----------------||
 |----------|------------------|----------|-----------------||
 |----------|------------------|----------|-----------------||
 |----------|------------------|----------|-----------------||
 |----------|------------------|----------|-----------------||
 |-8--------|-\7---------------|-0--------|-(0)-------------||

|
| Gtrs I, II
| ~~~~~~
| W W W H a H
 
 |----------|------------------|----------|-----------------||
 |----------|------------------|----------|-----------------||
 |----------|------------------|----------|-----------------||
 |----------|------------------|----------|-----------------||
 |----------|------------------|----------|-----------------||
 |----------|------------------|----------|--------7s12\----||

Backing Clean Guitar:
Gtr I (C# G# C# F# A# D#) - 'Clean Guitar - Rhythm'
Q=135
[4/4] Gtr I
E S S E E E E E E E S S E E E E E E
 
 |--------------------------|-------------------|
 |--------------------------|-------------------|
 |---------10---------------|-------7-----------|
 |------10----10----10------|-----7---7---7-----|
 |---12----------12----12---|---8-------8---8---|
 |-8----------------------8-|-5---------------5-|

E S S E E E E E E E S S E E E E E E
 
 |-----------0-------|----------------------|
 |-------5-----------|-------10---8---------|
 |-----------5-------|--------7---7---------|
 |-----7---7---7-----|-----7--------7-------|
 |---5-----------5---|---7------7-----------|
 |-0---------------0-|-7--------------/5-7--|

E S S E E E E E E E S S E E E E E E
 
 |--------------------------|-------------------|
 |--------------------------|-------------------|
 |---------10---------------|-------7-----------|
 |------10----10----10------|-----7---7---7-----|
 |---12----------12----12---|---8-------8---8---|
 |-8----------------------8-|-5---------------5-|

E S S E E E E E E E S S E E E E E E
 
 |-----------0-------|---------------------|
 |-------5-----------|-------10---8--------|
 |-----------5-------|--------7---7--------|
 |-----7---7---7-----|-----7--------7------|
 |---5-----------5---|---7------7----------|
 |-0---------------0-|-7--------------/5-7-|

E S S E E E E E E E S S E E E E E E
 
 |--------------------------|-------------------|
 |--------------------------|-------------------|
 |---------10---------------|-------7-----------|
 |------10----10----10------|-----7---7---7-----|
 |---12----------12----12---|---8-------8---8---|
 |-8----------------------8-|-5---------------5-|

E S S E E E E E E E S S E E E E E E
 
 |-----------0-------|---------------------|
 |-------5-----------|-------10---8--------|
 |-----------5-------|--------7---7--------|
 |-----7---7---7-----|-----7--------7------|
 |---5-----------5---|---7------7----------|
 |-0---------------0-|-7--------------/5-7-|

E S S E E E E E E E S S E E E E E E
 
 |--------------------------|-------------------|
 |--------------------------|-------------------|
 |---------10---------------|-------7-----------|
 |------10----10----10------|-----7---7---7-----|
 |---12----------12----12---|---8-------8---8---|
 |-8----------------------8-|-5---------------5-|

~~
a E +H.. +H. S S S S
 
 |-------------------|-------------------------------*|
 |-----^3-(3)--------|-(3)---------------------------*|
 |-----^2-(2)--------|-(2)---------------------------*|
 |-----^3-(3)--------|-(3)---------------------------*|
 |-----^0-(0)--------|-(0)---------------------------*|
 |-3b5---------------|----------/(12)S(11)S(10)S(9)--*|

*Acciaccatura Slide with distorted guitar
All positioning I = Index
M = Middle
R = Ring
P = Pink
Intro II
Q=133
$
[C#D]Gtrs[F] I[F#G#F#F], II[F#A] [G#F#F] [G#F#F] [D] [C#D] [F] [F#G#F#F] [F#D] [A] [G#F#G#F#F] [F#]
PM| PM| PM| PM PM| PM| PM| PM|
S S S S S S S S S S S S S S S S S S S S S S S S S S S S S S S S
 
 ||----------------------------------|----------------------------------|
 ||o---------------------------------|----------------------------------|
 ||----------------------------------|----------------------------------|
 ||----------------------------------|----------------------------------|
 ||o---------------------------------|-----------------6----------------|
 ||--0-1-4h5-7-5-4-5-8-7-5-4-7-5-4-1-|-0-1-4h5-7-5-4-5---8-7-5-7-5-4-5--|

I M M R P M I M P R M I P R M I I M M R P M I M R P R I P R I M
1.
[C#D]PM| [F] [F#G#F#F] PM[F#A]| [G#F#F] PM| [G#F#F] PM[D] [C#D]PM| [F] [F#G#F#F] PM[F#E]|[F#E] [G] [E] [F#E] [G]
S S S S S S S S S S S S S S S S S S S S S S S S S S S S S S S S
 
 |---------------------------------|----------------------------------||
 |---------------------------------|---------------------------------o||
 |---------------------------------|----------------------------------||
 |---------------------------------|----------------------------------||
 |---------------------------------|---------------------------------o||
 |-0-1-4h5-7-5-4-5-8-7-5-4-7-5-4-1-|-0-1-4h5-7-5-4-5-3h5-3h6-3h5-3h6--||

I M M R P M I M P R M I P R M I I M M R P M I M I M I R I M I R
2.
[C#D] [F] [F#G#F#F] [F#E] [F#E] [G] [E] [F#E] [G] [E] [F#E] [G] [E] [F#E] [G] 
[6/4] Gtrs I, II
PM| PM|
S S S S S S S S S S S S S S S S S S S S S S S S
 
 |-------------------------------------------------||
 |-------------------------------------------------||
 |-------------------------------------------------||
 |-------------------------------------------------||
 |-------------------------------------------------||
 |-0-1-4h5-7-5-4-5-3h5-3h6-3h5-3h6-3h5-3h6-3h5-3h6-||

I M M R P M I M I M I R I M I R I M I R I M I R
Verse I
[4/4]  
 
 PM--| PM--| PM--| PM--| PM----| PM--|

S S S E T T S E S S S S S S S S S S E T T S S S S S S S S S S
 
 ||--------------------------------|-----------------------------------|
 ||o-------------------------------|-----------------------------------|
 ||--------------------------------|-----------------------------------|
 ||--------------------------------|-----------------------------------|
 ||o-------------------------------|--------------------------------3--|
 ||--0-0-0-0-0-0-0-0-0-0-0-3h5p3h6-|-0-0-0-0-0-0-0-0-/3p2p1p0-6-3-6----|

I M I R R M I R I R I
U D U D U D U D D U D U D U D U D U D U D U D D
[A] [A] [A] [A] [A] 
 
 PM--| PM--| PM--|

S S S E T T S E S S S S S S S
 
 |-------------------------------|
 |-------------------------------|
 |-------------------------------|
 |-------------------------------|
 |-------------------------------|
 |-0-0-0-0-0-0-0-0-0-0-0-3h5p3h6-|

To Coda
 
 PM--| PM------------------------------------------|
 |--3--| |--3--| |--3--| |--3----|

S S S E T T S S S S S S S S S S S S S S
 
 |-------------------------------------------------------||
 |------------------------------------------------------o||
 |-------------------------------------------------------||
 |-------------------------------------------------------||
 |------------------------------------------------------o||
 |-0-0-0-0-0-0-0-0-13-13-12-12-10-10-13-13-12-12-10-10---||

R R M M I I R R M M I I
Chorus
D.S. al Coda
[A5]Gtr I[F#5]
 
 PM------------| ~~~~~~~~~-|
 |---3------------------|

E S E S E S S S S S S E E S E S S S E E E E +E
 
 ||----------------------------------|----------------------------------------|
 ||o---------------------------------|----------------------------------------|
 ||----------------------------------|----------------------------------------|
 ||----------------------------------|----------------------------------------|
 ||o-8---8-8---8-8---8-8-8-8-8-8-8S==|=5---5-5---------5---5---5--------------|
 ||--8---8-8---8-8---8-8-8-8-8-8-8S==|=5---5-5---5-5-5-5---5---5---[3]b5-(3)--|

|
| Gtr II
| ~~~~~~~~~
| S S E E S S S S E S S S S S S S S S S S S S S S S E +E
 
 ||----------------------------------|----------------------------------------|
 ||o---------------------------------|----------------------------------------|
 ||----------------------------------|----------------------------------------|
 ||----------------------------------|----------------------------------------|
 ||o-8-8-8---8---8-8-8-8-8---8-8-8-8-|-8s5-5-5-5-5-5-5-5-5---5---5------------|
 ||--8-8-8---8---8-8-8-8-8---8-8-8-8-|-----5-5-5-5-5-5-5-5---5---5-[7]b8-(7)--|

N.C.
PM| PM PM PM PM| PM PM PM PM
S S S S S S S S S S S S S S S S S S S S S S S S S S S S S S S S
 
 |---------------------------------|------------------------------------||
 |---------------------------------|-----------------------------------o||
 |-------------------------5-------|------------------------------------||
 |-----------------8p7p5h7---8p7h8-|-----------------8p7p5p4-7p5p4------||
 |-----5---6---3-------------------|-----5---6---3-----------------6---o||
 |-0-0---0---0---0-----------------|-0-0---0---0---0--------------------||

|
| PM| PM PM PM PM| PM PM PM PM
| S S S S S S S S S S S S S S S S S S S S S S S S S S S S S S S S
 
 |---------------------------------|------------------------------------||
 |---------------------------------|-----------------------------------o||
 |---------------------------------|------------------------------------||
 |-----------------5p4p1h5-7-5p4h5-|-----------------5p4p1p0-4p1p0------||
 |-----5---6---3-------------------|-----5---6---3-----------------3---o||
 |-0-0---0---0---0-----------------|-0-0---0---0---0--------------------||

Chorus II
&
[A5]Gtrs I, II[F#5] [Bm/D]
PM----|
E S S S S S S S S S S S S S S S S S S S S S S S S S S S S S S
 
 |-------------------------------|---------------------------------|
 |-------------------------------|---------------------------------|
 |-------------------------------|---------------------------------|
 |-------------------------------|---------------------------------|
 |-8-8-8-8-8-8-8-8-8-8-8-8-8-8-8s|=5-5-5-5-5-5-5-5-5-5-5-5-3-3-3-3-|
 |-8-8-8-8-8-8-8-8-8-8-8-8-8-8-8s|=5-5-5-5-5-5-5-5-5-5-5-5-1-1-1-1-|

[C#5] [B5] [F#m/C#]PM----|
E S S S S S S S S S S S S S S S S S S S S S S S S S S S S S S
 
 |-------------------------------|---------------------------------|
 |-------------------------------|---------------------------------|
 |-------------------------------|---------------------------------|
 |-------------------------------|-5-5-5-5-5-5-5-5-5-5-5-5-5-5-5-5-|
 |-0-0-0-0-0-0-0-0-0-0-0-0-0-0-0-|-3-3-3-3-3-3-3-3-3-3-3-3-1-1-1-1-|
 |-0-0-0-0-0-0-0-0-0-0-0-0-0-0-0-|-------------------------0-0-0-0-|

[A5]Gtr I[F#5]
PM----| ~~~~~~~~~
E S S S S S S S S S S S S S S S S S S S S S S S S S S E +E
 
 |-------------------------------|-----------------------------------||
 |-------------------------------|-----------------------------------||
 |-------------------------------|-----------------------------------||
 |-------------------------------|-----------------------------------||
 |-8-8-8-8-8-8-8-8-8-8-8-8-8-8-8s|=5-5-5-5-5-5-5-5-5-5-5-5-----------||
 |-8-8-8-8-8-8-8-8-8-8-8-8-8-8-8s|=5-5-5-5-5-5-5-5-5-5-5-5-[7]b8-(7)-||

|
| Gtr II
| PM----| ~~~~~
| E S S S S S S S S S S S S S S S S S S S S S S S S S S E +E
 
 |-------------------------------|-----------------------------------||
 |-------------------------------|-----------------------------------||
 |-------------------------------|-----------------------------------||
 |-------------------------------|-----------------------------------||
 |-8-8-8-8-8-8-8-8-8-8-8-8-8-8-8s|=5-5-5-5-5-5-5-5-5-5-5-5-[4]b5-(4)-||
 |-8-8-8-8-8-8-8-8-8-8-8-8-8-8-8s|=5-5-5-5-5-5-5-5-5-5-5-5-----------||

Re-Intro
Gtrs I, II
PM| PM| PM| PM PM| PM| PM| PM|
S S S S S S S S S S S S S S S S S S S S S S S S S S S S S S S S
 
 ||----------------------------------|----------------------------------|
 ||o---------------------------------|----------------------------------|
 ||----------------------------------|----------------------------------|
 ||----------------------------------|----------------------------------|
 ||o---------------------------------|-----------------6----------------|
 ||--0-1-4h5-7-5-4-5-8-7-5-4-7-5-4-1-|-0-1-4h5-7-5-4-5---8-7-5-7-5-4-5--|

Repeat previous fingering.
1.
PM| PM| PM| PM PM| PM|
S S S S S S S S S S S S S S S S S S S S S S S S S S S S S S S S
 
 |---------------------------------|----------------------------------||
 |---------------------------------|---------------------------------o||
 |---------------------------------|----------------------------------||
 |---------------------------------|----------------------------------||
 |---------------------------------|---------------------------------o||
 |-0-1-4h5-7-5-4-5-8-7-5-4-7-5-4-1-|-0-1-4h5-7-5-4-5-3h5-3h6-3h5-3h6--||

2.
[6/4] Gtrs I, II
PM| PM|
S S S S S S S S S S S S S S S S S S S S S S S S
 
 |-------------------------------------------------||
 |-------------------------------------------------||
 |-------------------------------------------------||
 |-------------------------------------------------||
 |-------------------------------------------------||
 |-0-1-4h5-7-5-4-5-3h5-3h6-3h5-3h6-3h5-3h6-3h5-3h6-||

Bridge
[C#5] [D5C#5] [C#5] 
[4/4] Gtr I
 
 PM--| PM--| PM--------|

S S S E T T S S S S E S S S S S S S S S S S S S S S S S S S S
 
 ||--------------------------------|----------------------------------|
 ||o-------------------------------|----------------------------------|
 ||--------------------------------|----------------------------------|
 ||--------------------------------|----------------------------------|
 ||o---------------1p0-------------|----------------------------------|
 ||--0-0-0-0-0-0-0-1p0-0-0-0-0-0-0-|-3p1p0-3p1p0-3h5h6-5-3p0-8p7p4h7--|

|
| I R I R I I M R M I P R I R
|
| Gtr II
 
 | PM--| PM--| PM--------| PM

| S S S E T T S S S S E S S S S S S E H E S S
 
 ||--------------------------------|----------------------------------|
 ||o-------------------------------|----------------------------------|
 ||--------------------------------|----------------------------------|
 ||--------------------------------|----------------------------------|
 ||o---------------1p0-------------|-0-x------------------------------|
 ||--0-0-0-0-0-0-0-1p0-0-0-0-0-0-0-|-0-x-------------------------0h4--|
 PM--| PM--| PM------------| PM PM PM PM

S S S E T T S S S S E S S S S S S S S S S S S S S S S S S S S
 
 |-------------------------------|----------------------------------||
 |-------------------------------|---------------------------------o||
 |-------------------------------|----------------------------------||
 |-------------------------------|----------------------------------||
 |---------------1p0-------------|---8p7---7p5-3-5s6s5-3-5---------o||
 |-0-0-0-0-0-0-0-1p0-0-0-0-0-0-0-|-0-----0-----------------8p7-4-7--||

|
| I M I R M I R I M P R I R
| *legato
 
 | PM--| PM--| PM--------| PM

| S S S E T T S S S S E S S S S S S E H E S S
 
 |-------------------------------|----------------------------------||
 |-------------------------------|---------------------------------o||
 |-------------------------------|----------------------------------||
 |-------------------------------|----------------------------------||
 |---------------1p0-------------|-0-x-----------------------------o||
 |-0-0-0-0-0-0-0-1p0-0-0-0-0-0-0-|-0-x-------------------------0h4--||

[C#5]Gtrs I, II[D5C#5]
 
 PM--| PM--| PM--------|

S S S E T T S S S S E S S S S S S S S S S S S S S S S S S S S
 
 ||--------------------------------|---------------------------------|
 ||o-------------------------------|---------------------------------|
 ||--------------------------------|---------------------------------|
 ||--------------------------------|---------------------------------|
 ||o---------------1p0-------------|---------------------------------|
 ||--0-0-0-0-0-0-0-1p0-0-0-0-0-0-0-|-3p1p0-3p1p0-3h5h6-5-3p0-8p7p4h7-|

1.
Gtr I[D5C#5]
 
 PM--| PM--| PM------------| PM PM PM PM

S S S E T T S S S S E S S S S S S S S S S S S S S S S S S S S
 
 |-------------------------------|----------------------------------||
 |-------------------------------|---------------------------------o||
 |-------------------------------|----------------------------------||
 |-------------------------------|----------------------------------||
 |---------------1p0-------------|---8p7---7p5-3-5s6s5-3-5---------o||
 |-0-0-0-0-0-0-0-1p0-0-0-0-0-0-0-|-0-----0-----------------8p7-4-7--||

|
| Gtr II
 
 | PM--| PM--| PM------------| PM PM PM PM

| S S S E T T S S S S E S S S S S S S S S S S S S S S S S S S S
 
 |-------------------------------|----------------------------------||
 |-------------------------------|---------------------------------o||
 |-------------------------------|----------------------------------||
 |-------------------------------|----------------------------------||
 |---------------1p0-------------|---8p7---3p1-0-------------------o||
 |-0-0-0-0-0-0-0-1p0-0-0-0-0-0-0-|-0-----0-------5s6s5-6-8p5p4-0-4--||

|
| Gtr III
| W W
 
 |-------------------------------|----------------------------------||
 |-------------------------------|---------------------------------o||
 |-------------------------------|----------------------------------||
 |-------------------------------|----------------------------------||
 |-------------------------------|---------------------------------o||
 |-------------------------------|----------------------------------||

2.
PM PM PM PM PM
S S S S S S S S S S S S S S S S
 
 |-------------------------------------||
 |-------------------------------------||
 |-------------------------------------||
 |----------------------------------5--||
 |----8p7---7p5-3-5s6s5-3-5---0h=3-----||
 |-0------0-----------------4----------||

|
| PM PM PM PM PM
| S S S S S S S S S S S S S S S S
 
 |-------------------------------------||
 |-------------------------------------||
 |-------------------------------------||
 |-------------------------------------||
 |----8p7---7p5-3-5s6s5-3-5---------6--||
 |-0------0-----------------0h4--7-----||

|
| H. E E
 
 |-------------------------------------||
 |------------------------------10/----||
 |------------------------------10/----||
 |-------------------------------------||
 |-------------------------------------||
 |-------------------------------------||

Guitar Solo
[A5]Gtrs I, II
E S S S S S S S S S S S S S S
| | | | | | | | | | | | | | |
[/] [/] [/] [/] [/] [/] [/] [/] [/] [/] [/] [/] [/] [/] [/] 
Gtr III
~~~~~~~~~~~~~~~~~~~~~~~~~~~ PM--|
 
 |---3---|

Q. E E S S S E E
 
 |---------------------------------------------------|
 |-15-------------(15)---(15)------------------------|
 |-18b19===========18-----18rp==17h19p==17S15---14---|
 |---------------------------------------------------|
 |---------------------------------------------------|
 |---------------------------------------------------|

|
| Gtr IV
| ~~~~~~~~~~~~~~~~~~~~~~~~~~~ PM--|
 
 | |---3---|

| Q. E E S S S E E
 
 |---------------------------------------------------|
 |-11-------------(11)---(11)------------------------|
 |-14b15===========14-----14r===14h15p==14S12---10---|
 |---------------------------------------------------|
 |---------------------------------------------------|
 |---------------------------------------------------|

[F#5] S S S S S S S S S S S S [Bm/D] S S S S
| | | | | | | | | | | | | | | |
[/] [/] [/] [/] [/] [/] [/] [/] [/] [/] [/] [/] [/] [/] [/] [/] 
~~~~~
E +E E E E T T T T E E
 
 |--------------------------------------------------------|
 |--------------------------------------------------------|
 |-[15]b17====(15)r==14---12h==14p==12h14p13p12s10---9----|
 |--------------------------------------------------------|
 |--------------------------------------------------------|
 |--------------------------------------------------------|

|
| ~~~~~
| E +E E E E T T T T E E
 
 |--------------------------------------------------------|
 |--------------------------------------------------------|
 |-[12]b14====(12)r==10----9h==10p===9h10p=9p=8s=7---5----|
 |--------------------------------------------------------|
 |--------------------------------------------------------|
 |--------------------------------------------------------|

[C#5] E S S S S S S S S S S S S S S
| | | | | | | | | | | | | | |
[/] [/] [/] [/] [/] [/] [/] [/] [/] [/] [/] [/] [/] [/] [/] 
~~~~
Q +E E E E E E
 
 |-------------------------------------------------|
 |-[10]-----(10)\------/15---15---/17---17---/18---|
 |-----------------------x----x-----x----x-----x---|
 |---------------------/12---12---/14---14---/15---|
 |-------------------------------------------------|
 |-------------------------------------------------|

|
| ~~~~
| Q +E E E E E E
 
 |-------------------------------------------------|
 |-------------------------------------------------|
 |-------------------------------------------------|
 |-------------------------------------------------|
 |--[5]-----------(5)\--/5----5----/7----7----/8---|
 |-----------------------0----0-----2----2-----3---|

[B5] S S S S S S S S S S S S [F#m/C#] S S S S
| | | | | | | | | | | | | | | |
[/] [/] [/] [/] [/] [/] [/] [/] [/] [/] [/] [/] [/] [/] [/] [/] 
[E] [E] [E] [E] [E] [E] [E] [E]  
 
 |------------------------------------------|
 |-18S==17---17---15---15\------------------|
 |--x----x----x----x----x----12---12s==14---|
 |-15S==14---14---12---12\----x-------------|
 |---------------------------10---10s==12---|
 |------------------------------------------|

|
| E E E E E E E E
 
 |------------------------------------------|
 |------------------------------------------|
 |------------------------------------------|
 |------------------------------------------|
 |--8S===7----7----5----5\------------------|
 |--3----2----2----0----0-----5----5s===7---|

[A5] E S S S S S S S S S S S S S S
| | | | | | | | | | | | | | |
[/] [/] [/] [/] [/] [/] [/] [/] [/] [/] [/] [/] [/] [/] [/] 
~~~~~~ PM--|
 
 |---3---|

Q. E E S S S E E
 
 |------------------------------------------------|
 |------------------------------------------------|
 |---15-------------------------------------------|
 |----------------/12---12---12h13p==12-----------|
 |-([13])-------------------------------13---10---|
 |------------------------------------------------|

|
| ~~~~~~ PM--|
 
 | |---3---|

| Q. E E S S S E E
 
 |------------------------------------------------|
 |------------------------------------------------|
 |------------------------------------------------|
 |---/8-------------8----8----8h10p===8-----------|
 |----x---------------------------------10----7---|
 |---/8-------------------------------------------|

[F#5] S S S S S S S S S S S S [Bm/D]S S S S
| | | | | | | | | | | | | | | |
[/] [/] [/] [/] [/] [/] [/] [/] [/] [/] [/] [/] [/] [/] [/] [/] 
 
 PM-----------------------|
 |---3-----|

E +E E E E S S S E E
 
 |-----------------------------------------------------|
 |-----------------------------------------------------|
 |-----------------------------------------------------|
 |-[12]b14r==(12)--------------------------------------|
 |------------------12---10---12---10h12p==10s8---7----|
 |-----------------------------------------------------|

|
 
 | PM-----------------------|
 | |---3-----|

| E +E E E E S S S E E
 
 |-----------------------------------------------------|
 |-----------------------------------------------------|
 |-----------------------------------------------------|
 |-----------------------------------------------------|
 |-[10]b12r==(10)----8----7----8----7h=8p===7s5---4----|
 |-----------------------------------------------------|

[C#5] E S S S S S S S S S S S S S S
| | | | | | | | | | | | | | |
[/] [/] [/] [/] [/] [/] [/] [/] [/] [/] [/] [/] [/] [/] [/] 
~~~
Q +Q +H
 
 |---------------------------------------|
 |---------------------------------------|
 |--7------(7)b9r======(7)---------------|
 |---------------------------------------|
 |-(5)-----(5)b7r======(5)---------------|
 |---------------------------------------|

|
| ~~~
| Q +Q +H
 
 |---------------------------------------|
 |---------------------------------------|
 |---------------------------------------|
 |---------------------------------------|
 |--5------(5)b7r======(5)---------------|
 |---------------------------------------|

[B5]S S S S S S S S S S S S [F#m/C#]S S S S
| | | | | | | | | | | | | | | |
[/] [/] [/] [/] [/] [/] [/] [/] [/] [/] [/] [/] [/] [/] [/] [/] 
PM---| ~~~~
|--3--|
S S S T T T T T T T T T T T E +Q S S
 
 |---------10h13s17-/22p17----------------17h20b22---(20)-------/13h15--|
 |------10-----------------18----------18-------------------------------|
 |-7S10-----------------------19----19----------------------------------|
 |-------------------------------19-------------------------------------|
 |----------------------------------------------------------------------|
 |----------------------------------------------------------------------|

|
| I I I I M M P I M R R R M I P I M
|
| W
 
 |----------------------------------------------------------------------|
 |----------------------------------------------------------------------|
 |----------------------------------------------------------------------|
 |----------------------------------------------------------------------|
 |----------------------------------------------------------------------|
 |----------------------------------------------------------------------|

[A5]Gtrs I, II
E S S S S S S S S S S S S S S
| | | | | | | | | | | | | | |
[/] [/] [/] [/] [/] [/] [/] [/] [/] [/] [/] [/] [/] [/] [/] 
Gtr III
~~~~
|--3--|
E +E +E S S S S S S T T S S S S
 
 |-15b17-(15)-(15)h17p16p15----15----------------------|
 |--------------------------18----18p17p16h18-17-15-17p|
 |-----------------------------------------------------|
 |-----------------------------------------------------|
 |-----------------------------------------------------|
 |-----------------------------------------------------|

M R M I P I P R M P R M R
[F#5] S S S S S S S S S S S S [Bm/D] S S S S
| | | | | | | | | | | | | | | |
[/] [/] [/] [/] [/] [/] [/] [/] [/] [/] [/] [/] [/] [/] [/] [/] 
TP PM PM-----|
|--3--|
S E S S S S S S S S S S S S S S
 
 |------------------------------------------------|
 |-15p14S11h14p11p10----11p10---------------------|
 |-------------------12-------12-10-12-10-9-------|
 |------------------------------------------12-11-|
 |------------------------------------------------|
 |------------------------------------------------|

[C#5] E S S S S S S S S S S S S S S
| | | | | | | | | | | | | | |
[/] [/] [/] [/] [/] [/] [/] [/] [/] [/] [/] [/] [/] [/] [/] 
TP
S S E T T S S S S S S S S S S S
 
 |--------------------10h12h13p12p10-12p10p9-------|
 |------------8h10h11------------------------11p10-|
 |----9h10\----------------------------------------|
 |-12----------------------------------------------|
 |-------------------------------------------------|
 |-------------------------------------------------|

|
| Gtr IV
| W
 
 |-------------------------------------------------|
 |-------------------------------------------------|
 |-------------------------------------------------|
 |-------------------------------------------------|
 |-------------------------------------------------|
 |-------------------------------------------------|

[B5] S S S S S S S S S S S S [F#m/C#] S S S S
| | | | | | | | | | | | | | | |
[/] [/] [/] [/] [/] [/] [/] [/] [/] [/] [/] [/] [/] [/] [/] [/] 
S S S S S S S S S S S S S S S S
 
 |-13p12p10p=9-/15p13p12p10-/17p15p13p12-/18p17p15p13--|
 |-----------------------------------------------------|
 |-----------------------------------------------------|
 |-----------------------------------------------------|
 |-----------------------------------------------------|
 |-----------------------------------------------------|

|
| P R M I P R M I P R M I P R M I
|
| S S S S S S S S S S S S S S S S
 
 |-----------------------------------------------------|
 |--------------------------/18p17p15p14-/20p18p17p15--|
 |-14p12p10-----15p14p12-------------------------------|
 |----------14-----------15----------------------------|
 |-----------------------------------------------------|
 |-----------------------------------------------------|

[A5]Gtrs I, II
E S S S S S S S S S S S S S S
 
 |----------------------------------------------------------|
 |----------------------------------------------------------|
 |----------------------------------------------------------|
 |----------------------------------------------------------|
 |--8----8-8---8---8-8---8--8-------8----8-----8---8--8-8-8s|
 |--8----8-8---8---8-8---8--8-------8----8-----8---8--8-8-8s|

|
| Gtr III
| ~~~~~ ~~~~
| Q +E E S +S +E +Q
 
 |-20b22-----(20)\---x--------------------------------------|
 |----------------------------------------------------------|
 |-------------------------12b14==(12)r(12)b14---(12)-------|
 |----------------------------------------------------------|
 |----------------------------------------------------------|
 |----------------------------------------------------------|

|
| Gtr IV
| ~~~~~ ~~~~~~~ PM
| Q +E E +E +Q E
 
 |-17b18-----(17)\------------------------------------------|
 |----------------------------------------------------------|
 |----------------------------------------------------------|
 |----------------------------------------------------------|
 |-------------------4b5---(4)----------(4)-------------0---|
 |------------------------------------------------------0---|

[F#5]  
 
 PM-------| ~~~~~~~~~~~

S S S S S S S S S S S S E +E
 
 |--------------------------------------------------------||
 |--------------------------------------------------------||
 |--------------------------------------------------------||
 |--------------------------------------------------------||
 |---5---5--5--5--5--5---5--5---5---5--5--5---------------||
 |---5---5--5--5--5--5---5--5---5---5--5--5-[7]b8---(7)---||

|
 
 | PM| PM---------------|

| S S S S S s S S S S S S S S S S
 
 |--------------------------------------------------------||
 |--------------------------------------------------------||
 |-[12]s10----10------------------------------------------||
 |---------12----12-11-\10----[12]s10---------------------||
 |-------------------------12---------12-11-10S===7--8--7\||
 |--------------------------------------------------------||

| * Artificial Harmonic * Artificial Harmonic
| I I M I R M I M I I P R I I M I
|
| W
 
 |--------------------------------------------------------||
 |--------------------------------------------------------||
 |--------------------------------------------------------||
 |--------------------------------------------------------||
 |--------------------------------------------------------||
 |--------------------------------------------------------||

Re-Intro
Gtrs I, II
PM---| PM| PM| PM PM| PM| PM| PM|
S S S S S S S S S S S S S S S S S S S S S S S S S S S S S S S S
 
 |---------------------------------------|---------------------------------|
 |---------------------------------------|---------------------------------|
 |---------------------------------------|---------------------------------|
 |---------------------------------------|---------------------------------|
 |---------------------------------------|-----------------6---------------|
 |--0----1-4h5--7--5-4-5-8-7-5-4-7-5-4-1-|-0-1-4h5-7-5-4-5---8-7-5-7-5-4-5-|

|
| Gtr III
| ~~~
| Q +H. W
 
 |---------------------------------------|---------------------------------|
 |---------------------------------------|---------------------------------|
 |---------------------------------------|---------------------------------|
 |---------------------------------------|---------------------------------|
 |-[4]b5-------(4)-----------------------|---------------------------------|
 |---------------------------------------|---------------------------------|

PM| PM| PM| PM PM| PM|
S S S S S S S S S S S S S S S S S S S S S S S S S S S S S S S S
 
 |---------------------------------|---------------------------------|
 |---------------------------------|---------------------------------|
 |---------------------------------|---------------------------------|
 |---------------------------------|---------------------------------|
 |---------------------------------|---------------------------------|
 |-0-1-4h5-7-5-4-5-8-7-5-4-7-5-4-1-|-0-1-4h5-7-5-4-5-3h5-3h6-3h5-3h6-|

Gtrs I, II
PM| PM| PM| PM PM| PM| PM| PM|
S S S S S S S S S S S S S S S S S S S S S S S S S S S S S S S S
 
 |---------------------------------|---------------------------------|
 |---------------------------------|---------------------------------|
 |---------------------------------|---------------------------------|
 |---------------------------------|---------------------------------|
 |---------------------------------|-----------------6---------------|
 |-0-1-4h5-7-5-4-5-8-7-5-4-7-5-4-1-|-0-1-4h5-7-5-4-5---8-7-5-7-5-4-5-|

PM| PM| PM| PM
S S S S S S S S S S S S S S S S
 
 |---------------------------------|
 |---------------------------------|
 |---------------------------------|
 |---------------------------------|
 |---------------------------------|
 |-0-1-4h5-7-5-4-5-8-7-5-4-7-5-4-1-|

[3/2] Gtrs I, II Gtr I Gtr II Gtrs I, II
PM| PM|
S S S S S S S S S S S S S S S S S S S S S S S S
 
 |---------------------------------------------------||
 |---------------------------------------------------||
 |---------------------------------------------------||
 |---------------------------------------------------||
 |---------------------------------------------------||
 |-0-1-4h5-7-5-4-5-3h5-3h6-3h5-3h6-3h5-3h6-3h5-3h6---||

Outro
1.,2.,3.,4.,5.,6.,7.
[4/4] Gtrs I, II
 
 PM--| PM--| PM--------|

S S S E T T S S S S E S S S S S S S S S S S S S S S S S S S S 8x
 
 ||--------------------------------|-----------------------------------||
 ||o-------------------------------|----------------------------------o||
 ||--------------------------------|-----------------------------------||
 ||--------------------------------|-----------------------------------||
 ||o-------------------------------|----------------------------------o||
 ||--0-0-0-0-0-0-0-1p0-0-0-0-0-0-0-|-3h5-3h6-3h5-3h6-3h5-3h6-3h5-3h6---||

8.
S S S S S S S S S S S S S S S S h H
 
 |---------------------------------|-----------*|
 |---------------------------------|-----------*|
 |---------------------------------|-----------*|
 |---------------------------------|-0---------*|
 |---------------------------------|-0---------*|
 |-3h5-3h6-3h5-3h6-3h5-3h6S7p6-5p3-|-0---------*|

Duration Legend
 
 ---------------
 W - whole; H - half; Q - quarter; E - 8th; S - 16th; T - 32nd; X - 64th; a - acciaccatura

+ - note tied to previous; . - note dotted; .. - note double dotted
Uncapitalized letters represent notes that are staccato (1/2 duration)
Irregular groupings are notated above the duration line
Duration letters will always appear directly above the note/fret number it represents the
duration for. Duration letters with no fret number below them represent rests. Multi-
bar rests are notated in the form Wxn, where n is the number of bars to rest for. Low
melody durations appear below the staff
Tablature Legend
 
 ----------------

h - hammer-on
p - pull-off
b - bend
pb - pre-bend
r - bend release (if no number after the r, then release immediately)
/\ - slide into or out of (from/to "nowhere")
s - legato slide
S - shift slide
- natural harmonic
[n] - artificial harmonic
n(n) - tapped harmonic
~ - vibrato
tr - trill
T - tap
TP - trem. picking
PM - palm muting
\n/ - tremolo bar dip; n = amount to dip
\n - tremolo bar down
n/ - tremolo bar up
/n\ - tremolo bar inverted dip
= - hold bend; also acts as connecting device for hammers/pulls
- volume swell (louder/softer)
x - on rhythm slash represents muted slash
o - on rhythm slash represents single note slash
Misc Legend
 
 -----------

| - bar
|| - double bar
||o - repeat start
o|| - repeat end
*| - double bar (ending)
: - bar (freetime)
$ - Segno
& - Coda
Tempo markers - = BPM(8/16=s8/s16), where s8 = swing 8ths, s16 = swing 16ths

Important: The song above is NOT stored on the Chordie server. The original song is hosted at www.guitaretab.com. Chordie works as a search engine and provides on-the-fly formatting. Chordie does not index songs against artists'/composers' will. To remove this song please click here.

Text color:
Chord color:
Chord grids: 
Font size:    
Page size: 

A A5 B5 Bm/D C# C#5 C#m/F# D E Eb Emaj7/Ab F F# F#5 F#m/C# G G#
Rate #1 of 2 versions

Jango Player

Login - add to songbook

SHARE PAGE  




You need to log in to post comments