Guitar Tabs, Chords and Lyrics
Server problems seems to be fixed. Chordie has been experiencing problems with songs disappearing. These issues now seems to be fixed, but still verifying the fix. If you find anything strange, please email admin@chordie.com.


Vigil  Lamb of God

Vigil
Lamb of God
Willie Adler
E E E E E E E E E E E E E E E E 4x
 
 E||---5--1--------6--------5--|---------------------------||
 B||---------3--------8--6-----|--6-----8--5-----6--5------||
 G||*--------------------------|-----7--------7--------7--*||
 D||*--0--------0--------------|--------------------------*||
 A||---------------------------|---------------------------||
 D||---------------------------|---------------------------||

[E] [E] [E] [E] [E] [E] [E] [E] [E] [E] [E] [E] [E] [E] [E] [E]  
 
 --5--1--------6--------5--|--------------------------|
 --------3--------8--6-----|--6-----8--5-----6--5-----|
 --------------------------|-----7--------7--------7--|
 --0--------0--------------|--------------------------|
 --------------------------|--------------------------|
 --------------------------|--------------------------|

[E] [E] [E] [E] [E] [E] [E] [E] [E] [E] [E] [E] [E] [E] [E] [E]  
 
 --5--1--------6--------5--|--------------------------|
 --------3--------8--6-----|--6-----8--5-----6--5-----|
 --------------------------|-----7--------7--------7--|
 --0--------0--------------|--------------------------|
 --------------------------|--------------------------|
 --------------------------|--------------------------|

[E] [E] [E] [E] [E] [E] [E] [E] [E] [E] [E] [E] [E] [E] [E] [E]  
 
 --5--1--------6--------5--|--------------------------|
 --------3--------8--6-----|--6-----8--5-----6--5-----|
 --------------------------|-----7--------7--------7--|
 --0--------0--------------|--------------------------|
 --------------------------|--------------------------|
 --------------------------|--------------------------|

[E] [E] [E] [E] [E] [E] [E] [E] [E] [E] [E] [E] [E] [E] [E] [E]  
 
 --5--1--------6--------5--|--------------------------|
 --------3--------8--6-----|--6-----8--5-----6--5-----|
 --------------------------|-----7--------7--------7--|
 --0--------0--------------|--------------------------|
 --------------------------|--------------------------|
 --------------------------|--------------------------|

[E] [E] [E] [E] [E] [E] [E] [E] [E] [E] [E] [E] [E] [E] [E] [E]  
 
 --5--1--------6--------5--|--------------------------|
 --------3--------8--6-----|--6-----8--5-----6--5-----|
 --------------------------|-----7--------7--------7--|
 --0--------0--------------|--------------------------|
 --------------------------|--------------------------|
 --------------------------|--------------------------|

[E] [E] [E] [E] [E] [E] [E] [E] [E] [E] [E] [E] [E] [E] [E] [E]  
 
 --5--1--------6--------5--|--------------------------|
 --------3--------8--6-----|--6-----8--5-----6--5-----|
 --------------------------|-----7--------7--------7--|
 --0--------0--------------|--------------------------|
 --------------------------|--------------------------|
 --------------------------|--------------------------|

E E E E E E E E E E E E E E E E Q Q E Q E
 
 --5--1--------6--------5--|--------------------------||------------------------|
 --------3--------8--6-----|--6-----8--5-----6--5-----||------------------------|
 --------------------------|-----7--------7--------7--||*-----------------------|
 --0--------0--------------|--------------------------||*-----------------------|
 --------------------------|--------------------------||-------------1-------0--|
 --------------------------|--------------------------||---0----0-------3-------|

PM PM PM
Q E Q E E E 4x Q Q E Q E Q E Q E E E 4x
 
 -------------------------||------------------------|-------------------------||
 -------------------------||------------------------|-------------------------||
 ------------------------*||*-----------------------|------------------------*||
 ------------------------*||*------------3-------2--|------------------------*||
 -------------------------||---0----0----1--3----0--|--2----6--1----5--1--0---||
 --2----6--1----5--1--0---||---0----0-------3-------|--2----6--1----5--1------||

[E] [E] [E] [E] [E] [E] [E] [E] [E] [E] [E] [E] [E] [E] [E] [E] [B] [B]  
 
 --------------------------|--------------------------|--------------------|
 --3--3--3--3--3--3--3--3--|--3--3--3--3--3--3--3--3--|--------------------|
 --2--2--2--2--2--2--2--2--|--2--2--2--2--2--2--2--2--|-----------9--------|
 --0--0--0--0--0--0--0--0--|--0--0--0--0--0--0--0--0--|-----------7--------|
 --1--1--1--1--1--1--1--1--|--1--1--1--1--1--1--1--1--|-----------5--------|
 --------------------------|--------------------------|--0-----------------|

Q Q H E E E E E E E E E E E E E E E E
 
 ---------------------|--------------------------|--------------------------|
 ---------------------|--3--3--3--3--3--3--3--3--|--3--3--3--3--3--3--3--3--|
 ------------9--------|--2--2--2--2--2--2--2--2--|--2--2--2--2--2--2--2--2--|
 ------------7--------|--0--0--0--0--0--0--0--0--|--0--0--0--0--0--0--0--0--|
 ------------5--------|--1--1--1--1--1--1--1--1--|--1--1--1--1--1--1--1--1--|
 --0----0-------------|--------------------------|--------------------------|

H H Q Q H E E E E E E E E
 
 --------------------|---------------------|--5--1--------6--------5--|
 --------------------|---------------------|--------3--------8--6-----|
 -----------9--------|------------9--------|--------------------------|
 -----------7--------|------------7--------|--0--------0--------------|
 -----------5--------|------------5--------|--------------------------|
 --0-----------------|--0----0-------------|--------------------------|

[E] [E] [E] [E] [E] [E] [E] [E] [E] [E] [E] [E] [E] [E] [E] [E]  
 
 --------------------------|--5--1--------6--------5--|
 --6-----8--5-----6--5-----|--------3--------8--6-----|
 -----7--------7--------7--|--------------------------|
 --------------------------|--0--------0--------------|
 --------------------------|--------------------------|
 --------------------------|--------------------------|

[E] [E] [E] [E] [E] [E] [E] [E] [E] [E] [E] [E] [E] [E] [E] [E]  
 
 --------------------------|--5--1--------6--------5--|
 --6-----8--5-----6--5-----|--------3--------8--6-----|
 -----7--------7--------7--|--------------------------|
 --------------------------|--0--------0--------------|
 --------------------------|--------------------------|
 --------------------------|--------------------------|

[E] [E] [E] [E] [E] [E] [E] [E] [E] [E] [E] [E] [E] [E] [E] [E]  
 
 --------------------------|--5--1--------6--------5--|
 --6-----8--5-----6--5-----|--------3--------8--6-----|
 -----7--------7--------7--|--------------------------|
 --------------------------|--0--------0--------------|
 --------------------------|--------------------------|
 --------------------------|--------------------------|

E E E E E E E E Q Q E E Q E Q E E E E E
 
 --------------------------||------------------------|-------------------------|
 --6-----8--5-----6--5-----||------------------------|-------------------------|
 -----7--------7--------7--||*-----------------------|-------------------------|
 --------------------------||*-----------------------|-------------------------|
 --------------------------||------------------------|-------------------------|
 --------------------------||---0----0----3--5--6----|--L--0----0--3--5--6--1--|

Q Q E E Q E E S S S S S S S S Q
 
 -----------------------|------------------------------||
 -----------------------|------------------------------||
 -----------------------|-----------------------------*||
 -----------------------|-----------------------------*||
 -----------------------|------------------------3-----||
 --0----0----3--5--6----|--L--0--1-1-1---0---0---5-----||

PM PM PM PM PM PM PM PM
Q Q E E Q E Q E E E E E Q Q E E Q
 
 ------------------------|-------------------------|-----------------------|
 ------------------------|-------------------------|-----------------------|
 *-----------------------|-------------------------|-----------------------|
 *-----------------------|-------------------------|-----------------------|
 ------------------------|-------------------------|-----------------------|
 ---0----0----3--5--6----|--L--0----0--3--5--6--1--|--0----0----3--5--6----|

PM PM PM PM PM
E E S S S S S S S S Q W W
 
 -----------------------------------||-------------------|-------------------|
 -----------------------------------||-------------------|-------------------|
 ----------------------------------*||-------------------|-------------------|
 ----------------------------------*||--0----------------|--L----------------|
 -----------------------------3-----||--0----------------|--L----------------|
 --L--0--1--1--1----0----0----5-----||--0----------------|--L----------------|

W H S S S S S S S S S S S S S S S S
 
 -------------------|-----------||-----------------------------------|
 -------------------|-----------||-----------------------------------|
 -------------------|-----------||*----------------------------------|
 --L----------------|--L--------||*----------------------------------|
 --L----------------|--L--------||-----------------------------------|
 --L----------------|--L--------||---3-0-0-1-0-0-3-0-0-1-0-0-6-5-3-0-|

S S S S S S S S S S S S S S S S S S S S S S S S S S S S S S S S
 
 ----------------------------------|----------------------------------|
 ----------------------------------|----------------------------------|
 ----------------------------------|----------------------------------|
 ----------------------------------|----------------------------------|
 ----------------------------------|----------------------------------|
 --3-0-0-1-0-0-3-0-6-5-3-5-3-1-0-1-|--3-0-0-1-0-0-3-0-0-1-0-0-6-5-3-0-|

S S S S S S S S S S S S E E S S S S S S S S S S S S S S S S
 
 ---------------------------------||-----------------------------------|
 ---------------------------------||-----------------------------------|
 --------------------------------*||*----------------------------------|
 --------------------------------*||*----------------------------------|
 ---------------------------------||-----------------------------------|
 --3-0-0-1-0-0-3-0-6-5-3-0-5--6---||---3-0-0-1-0-0-3-0-0-1-0-0-6-5-3-0-|

S S S S S S S S S S S S S S S S
 
 ----------------------------------|
 ----------------------------------|
 ----------------------------------|
 ----------------------------------|
 ----------------------------------|
 --3-0-0-1-0-0-3-0-6-5-3-5-3-1-0-1-|

PM PM PM PM PM PM PM PM PM PM PM PM PM PM PM PM
S S S S S S S S S S S S S S S S
 
 --------------------------------------------------|
 --------------------------------------------------|
 --------------------------------------------------|
 --------------------------------------------------|
 --------------------------------------------------|
 --3--0--0--1--0--0--3--0--0--1--0--0--6--5--3--0--|

PM PM PM PM PM PM PM PM PM PM PM PM
S S S S S S S S S S S S E E
 
 ---------------------------------------------||
 ---------------------------------------------||
 --------------------------------------------*||
 --------------------------------------------*||
 ---------------------------------------------||
 --3--0--0--1--0--0--3--0--6--5--3--0--5--6---||

S S S S E S S S S E S S S S E S S S S S S S S S S S S S S
 
 ---------------------------------------------------------------|
 ---------------------------------------------------------------|
 ---------------------------------------------------------------|
 ---------------------------------------------------------------|
 ---------------------------------------------------------------|
 --0-0-0-0----0-0-0-0----0-0-0-0----0-0-0-0-0-0-0-0-0-5-0-5-6-3-|

S S S S E S S S S E S S S S E S S S S S S S S S S S S S S
 
 |-----------------------------------------------------------------||
 |-----------------------------------------------------------------||
 |*---------------------------------------------------------------*||
 |*---------------------------------------------------------------*||
 |--------------------------------------------------------3--------||
 |---0-0-0-0----0-0-0-0----0-0-0-0----0-0-0-3-5-6-3-6-5-6---6-5-3--||

S S S E. S S S E. S S S E. S S S S S S S S S S S S S S 4x
 
 ---------------------------------------------------------------||
 ---------------------------------------------------------------||
 *-------------------------------------------------------------*||
 *--2-2-2-2---3-3-3-3---2-2-2-2--------------------------------*||
 ---2-2-2-2---3-3-3-3---2-2-2-2---6-5-3-------6-5-----8-7-------||
 ---2-2-2-2---3-3-3-3---2-2-2-2---------6-5-3-----8-6-----10-8--||

S S S S S S S S S S S S S S S S
 
 ----------------------------------------|
 ----------------------------------------|
 *---------------------------------------|
 *---------------------------------------|
 ----------------------------------------|
 ---12-0-7-0-12-0-12-0-7-0-12-0-12-0-7-0-|

S S S S S S S S S S S S S S S S 6x
 
 -----------------------------------------||
 -----------------------------------------||
 ----------------------------------------*||
 ----------------------------------------*||
 -----------------------------------------||
 --12-0-6-0-13-0-13-0-6-0-13-0-13-0-12-0--||

S S S S S S S S S S S S S S S S
 
 ---10--------10---10--------10---10--------|
 --------10-------------10-------------10---|
 *-----7----7----7----7----7----7----7----7-|
 *------------------------------------------|
 -------------------------------------------|
 -------------------------------------------|

S S S S S S S S S S S S S S S S
 
 --10-------11---11--------11---11--------|
 -------9-------------11-------------10---|
 -----7---7----7----7----7----7----7----7-|
 -----------------------------------------|
 -----------------------------------------|
 -----------------------------------------|

S S S S S S S S S S S S S S S S
 
 --10--------10---10--------10---10--------|
 -------10-------------10-------------10---|
 -----7----7----7----7----7----7----7----7-|
 ------------------------------------------|
 ------------------------------------------|
 ------------------------------------------|

S S S S S S S S S S S S S S S S
 
 --10-------11---11--------11---11---------||
 -------9-------------11-------------10----||
 -----7---7----7----7----7----7----7----7-*||
 -----------------------------------------*||
 ------------------------------------------||
 ------------------------------------------||

S S S E. S S S E. S S S E. S S S S S S S S S S S S S S 4x
 
 ---------------------------------------------------------------||
 ---------------------------------------------------------------||
 *-------------------------------------------------------------*||
 *--2-2-2-2---3-3-3-3---2-2-2-2---1-0--------------------------*||
 ---2-2-2-2---3-3-3-3---2-2-2-2-------3-------6-5-----8-7-------||
 ---2-2-2-2---3-3-3-3---2-2-2-2---------6-5-3-----8-6-----10-8--||

S S S S S S S S S S S S S S S S S S E S S 9x
 
 -----------------------------------------------||
 -----------------------------------------------||
 *---------------------------------------------*||
 *---------------------------------------------*||
 -----------------------------------------------||
 ---0-0-0-0---0-0-0-0---0-0-0-0---0-0-0-0--0-0--||

W W
 
 ------------------------------------|-------------------||
 ------------------------------------|-------------------||
 ------------------------------------|-------------------||
 ------------------------------------|-------------------||
 ------------------------------------|-------------------||
 ------------------------------------|-------------------||

Duration Legend
 
 ---------------

W - whole
H - half
Q - quarter
E - 8th
S - 16th
T - 32nd
X - 64th
. - note dotted
|-n-| - n-tuplets
Tablature Legend
 
 ----------------

L - tied note
x - dead note
g - grace note
(n) - ghost note
> - accentuded note
NH - natural harmonic
AH - artificial harmonic
TH - tapped harmonic
SH - semi harmonic
PH - pitch harmonic
h - hammer on
p - pull off
b - bend
br - bendRelease
pb - preBend
pbr - preBendRelease
brb - bendReleaseBend
\n/ - tremolo bar dip
\n - tremolo bar dive
-/n - tremolo bar Release up
/n\ - tremolo bar inverted dip
/n - tremolo bar return
-\n - tremolo bar Release down
S - shift slide
s - legato slide
/ - slide into from below or out of upwards
\ - slide into from above or out of downwards
~ - vibrato
W - wide vibrato
tr - trill
TP - tremolo picking
T - tapping
S - slap
P - pop
< - fade in
^ - brush up
v - brush down

Important: The song above is NOT stored on the Chordie server. The original song is hosted at www.guitaretab.com. Chordie works as a search engine and provides on-the-fly formatting. Chordie does not index songs against artists'/composers' will. To remove this song please click here.

Text color:
Chord color:
Chord grids: 
Font size:    
Page size: 

B E
Rate #3 of 5 versions

Jango Player

Login - add to songbook

SHARE PAGE  




You need to log in to post comments