Guitar Tabs, Chords and Lyrics
Major upgrade!! After one year development the new version of Chordie is now online! Please give feedback.


Donâ??t Give It Up   Larry Carlton

 
 e -------------------------------------------------------------------------|
 B -------------------------------------------------------------------------|
 G ----------------------7--------------------------------------------------|
 D ---------9p7------------10p8----8-8--------------------------------------|
 A ------10-----10p8h10---------10-----10p8----8-8-10-----------------------|
 E -9/10------------------------------------10------------------------------|
 e -------------------------------------------------------------------------|
 B -------------------------------------------------------------------------|
 G ----------------------7--------------------------------------------------|
 D ---------9p7------------10p8----8-8--------------------------------------|
 A ------10-----10p8h10---------10-----10p8----8-8-10-----------------------|
 E -9/10------------------------------------10------------------------------|
 e -------------------------------------------------------------------------|
 B -------------------------------------------------------------------------|
 G -------------------------10----------------------------------------------|
 D ----------12p10-------------13p11----11-11 ------------------------------|
 A -------13-------13p11h13----------13-------13p11----11-11-13-------------|
 E -12/13-------------------------------------------13----------------------|
 e -------------------------------------------------------------------------|
 B -----------------------------------------------------17b19-17b19-15------|
 G ----------------------7--------------------------------------------------|
 D ---------9p7------------10p8----8-8--------------------------------------|
 A ------10-----10p8h10---------10-----10p8----8-8-10-----------------------|
 E -9/10------------------------------------10------------------------------|
 e -------------------------------------------------------------------------|
 B -15b17-15b17-13--10b11r10p8---8------------------------------------------|
 G ----------------------------9--------------------------------------------|
 D -------------------------------------------------------------------------|
 A -------------------------------------------------------------------------|
 E -------------------------------------------------------------------------|


Important: The song above is NOT stored on the Chordie server. The original song is hosted at www.guitaretab.com. Chordie works as a search engine and provides on-the-fly formatting. Chordie does not index songs against artists'/composers' will. To remove this song please click here.

This song is displayed as text-only. Transposing and tuning is only available for chordpro-songs.
Rate #1 of 1 versions

Login - add to songbook

SHARE PAGE  




You need to log in to post comments