Guitar Tabs, Chords and Lyrics
Major upgrade!! After one year development the new version of Chordie is now online! Please give feedback.


Rambling Man   Laura Marling

 
 e ----2/-4-------2-------0----[0----0]----|
 b ----0/-0-------0-------0----[0----0]----|
 g# ----1/-3-------1-------0----[1----0]----| [This repeats 3x in intro]
 e ----0/-0-------0-------0----[0----0]----|
 b -----------------------0----[2----0]----|
 e -----------------------0----[0----0]----|

 


 


 Chorus


 

 
 e ----4----2----5----4----4----2----5----0----[0----0]----|
 b ----0----0----0----0----0----0----0----0----[0----0]----|
 g# ----3----1----5----3----3----1----5----0----[1----0]----| [3x [6x at end of song]]
 e ----0----0----0----0----0----0----0----0----[0----0]----|
 b ----0----0----0----0----0----0----0----0----[2----0]----|
 e ---------------------------------------0----[0----0]----|

 


 


 Bridge


 

 
 e ----x----0---- ----x----0----[0----0]----|
 b ----x----0---- ----x----0----[0----0]----|
 g# ----0----0---- 4x ----0----0----[1----0]----| [3x]
 e ----0----0---- ----0----0----[0----0]----|
 b ----2----0---- ----2----0----[2----0]----|
 e ---------0---- ---------0----[0----0]----|


Important: The song above is NOT stored on the Chordie server. The original song is hosted at www.guitaretab.com. Chordie works as a search engine and provides on-the-fly formatting. Chordie does not index songs against artists'/composers' will. To remove this song please click here.

This song is displayed as text-only. Transposing and tuning is only available for chordpro-songs.
Rate #2 of 3 versions

Jango Player

Login - add to songbook

SHARE PAGE  




You need to log in to post comments