Guitar Tabs, Chords and Lyrics
Major upgrade!! After one year development the new version of Chordie is now online! Please give feedback.


The Ramblin' Boys of Pleasure  The Lawrence Arms

[C]A million times a day I [Em]try to fail or fail to try.
It's an easy way to [F]live. It's a lifeless way [G]to die.
[C]I used to hear "Son,[Em] you've got a lot to learn."
I used to [F]hear a lot a lot [G]the slow dull burn
[C]Of p[G]aper and t[F]obacco and the bad breath s[C]moke singin'
"Hey[G] man, lemme[F] tell you a joke."
"Well what's at[C]tached to a lea[G]sh that it [Am]made itsel[F]f?"
"The [C]punchline is the [G]way that you've been fuckin' yourself."
(fuckin yourself)
 
 |--------0-|
 |----1-----|
 |------0---|
 |--3-------|
 |----------|
 |----------|

[Am]Sit do[C]wn, [F]shut up. It's a long ride yet.
[Am]I'm here[C] to show you[F] something not easy to forget.
[C]It's a b[G]ird, it's a p[Am]lane, it's a [F]goddamn shame.
[C]One d[G]ay until r[Am]etirement. It w[F]as God's way.
Am F (bend the top 4 strings.. listen on the song for where)
I'm ready or not.
[C]You're [G]here, [F]i come.
Am F (bend
There's tears on my cheeks (there's tears on my cheeks)
[C]From b[G]eing so[F] dumb.
 
 |----------3--------3-------0------3------5-0--|
 |----5h6p5--5--5h6p5-5---1----1------0---------|
 |----------------------------------------------|
 |----------------------------------------------|
 |--0----------0--------------------------------|
 |-----------------------1--1-----1------1------|

There's proof painted on the roof and it's rainin' and i hate it
i hate it
i hate it
i hate it
(4x)
[Am]Things have [C]changed f[F]orever.
[Am]We're the r[C]amblin' boy[F]s of pleasure.
[Am]Things have [C]changed things have c[F]hanged forever.
[Am]We're the ra[C]mblin' boys of pleas[F]ure.
Am (ring out)
Things have changed, things have changed forever
We're the ramblin' boys of pleasure
 
 |------0-------0----------0-------0----|
 |--------1-------1----------1-------1--|
 |------------------2----------2--------|
 |----2-------2----------3--------3-----|
 |--0-----------------------------------|
 |----------3---------------------------|

changed, changed forever
 
 |------0-------0---------0-------0---|
 |--------1-------1-------1------1----|
 |----------------------2-----2-------|
 |----2-------2-------3---------3-----|
 |--0---------------------------------|
 |----------3-------------------------|

Ramblin boys of pleasure
 
 |------0-------0-----------0-------0---|
 |--------1-------1-----------1-------1-|
 |------------------------2-------2-----|
 |----2-------2---------3-------3-------|
 |--0-------3---------------------------|
 |--------------------------------------|

Changed changed forever
 
 |------0-------0--------0----|
 |--------1-------1------1----|
 |-----------------------2----|
 |----2-------2----------3----|
 |--3-------------------------|
 |----------3-----------------|

Ramblin boys of pleasure

Important: The song above is NOT stored on the Chordie server. The original song is hosted at www.guitaretab.com. Chordie works as a search engine and provides on-the-fly formatting. Chordie does not index songs against artists'/composers' will. To remove this song please click here.

Text color:
Chord color:
Chord grids: 
Font size:    
Page size: 

Am C Em F G
Rate #1 of 1 versions

Login - add to songbook

SHARE PAGE  




You need to log in to post comments