Guitar Tabs, Chords and Lyrics
Major upgrade!! After one year development the new version of Chordie is now online! Please give feedback.


Blue  LeAnn Rimes

 
 -----------------------------------------------------------------------

BLUE ? LeAnn Rimes
 
 -----------------------------------------------------------------------

Tabbed by: Bob Miller
Email: onefinebob at gmail dot com
Here?s a version of Blue. The solo is not yet included, but
some other things are, including the riffs between some of
the lines in the song. I don't have an electric guitar, nor
have I ever played one, so feel free to e-mail with comments and
suggestions for how to make this clearer. Enjoy!
INTRO:
 
 e|-------------------|
 B|5-5-5-7-7-7-9-9-9--|
 G|-------------------|
 D|6-6-6-7-7-7-9-9-9--|
 A|-------------------|
 E|-------------------|

VERSE:
[A]Blue-[Db]oo-oo-oo-[Db7]oo [F#] Oh so [F#7]lonesome for you
[B7]Why can't you be [E]blue over
[A]me?[E]
 
 e|------------|--------------|
 B|--------5-7-|5----5--------|
 G|----2/6-----|------6p4-6p4-|
 D|------------|--------------|
 A|------------|--------------|
 E|------------|--------------|

[A]Blue-[Db]oo-oo-oo-[Db7]oo [F#] Oh so [F#7]lonesome for you
[B7]Tears fill my e[E]yes till I can't
A D A N.C.
see
 
 e|--5---5--5--|0-----------|
 B|---5--7\-4--|------------|
 G|-----6------|2----h2-4-5-|
 D|------------|------------|
 A|------------|------0-2-3-|
 E|------------|------------|

CHORUS
[Db]Three O'clock in the morning[Db7]
[F#]Here am I[F#7]
[B7]Sitting here so lonely
E Ebdim E (INTRO)
So lonesome I could cry
 
 e|-------------------|
 B|5-5-5-7-7-7-9-9-9--|
 G|-------------------|
 D|6-6-6-7-7-7-9-9-9--|
 A|-------------------|
 E|-------------------|

VERSE:
[A]Blue-[Db]oo-oo-oo-[Db7]oo [F#] Oh so [F#7]lonesome for you[B7]
 
 e|-----------|-----|
 B|-11\-7\-5\-|4----|
 G|-----------|-----|
 D|-----------|-----|
 A|-----------|-----|
 B|-----------|-----|

[B7]Why can't you be b[E]lue over
[A]me?[D] [A]
 
 e|--5----------------|------------|
 B|--6\5-----5--------|------------| SOLO
 G|------4/6--6p4h6p4-|------------| STARTS
 D|-------------------|7-----------| HERE
 A|-------------------|------------|
 E|-------------------|------------|

*The 6\5 slide on the B string happens
very quickly, immediately on the beat
SOLO Chords:
A | Db Db7 | F# | F#7
B7 | E | A D |A N.C.
 
 e|------------|
 B|------------|
 G|-----h2-4-5-|
 D|------------|
 A|------0-2-3-|
 E|------------|

CHORUS
[Db]Now that's it over[Db7]
[F#]I realized[F#7]
[B7]Those weak words you whispered
E Ebdim E N.C.
Were nothing but lies
 
 e|---------------------|
 B|6-6-6-7-7-7-9--9--9--|
 G|---------------------|
 D|6-6-6-8-8-8-10-10-10-|
 A|---------------------|
 E|---------------------|

VERSE:
[A#]Blue-[D]oo-oo-oo-[D7]oo [G] Oh so [G7]lonesome for you[C7]
 
 e|-/13\-12\-10\-|8----|
 B|--------------|-----|
 G|-/14\-12\-10\-|9----|
 D|--------------|-----|
 A|--------------|-----|
 B|--------------|-----|

[C7]Why can't you be b[F]lue over [A#]me?[A] [A#] [B] [C7]
 
 e|-5-5/6-6/7-7/|8----|
 B|-------------|-----|
 G|-6-6/7-7/8-8/|9----|
 D|-------------|-----|
 A|-------------|-----|
 B|-------------|-----|

[C7]Why can't you be b[F]lue over [A#]me?[A#]
 
 e|----------------|6---||
 B|----------------|6---||
 G|---10-9--9-8--8-|7---||
 D|---12-11-11-----|8---||
 A|-----------9-9--|8---||
 B|----------------|6---||

| / slide up
| \ slide down
| h hammer-on
| p pull-off
| ~ vibrato
| + harmonic
| x Mute note
=======================================================================

Important: The song above is NOT stored on the Chordie server. The original song is hosted at www.guitaretab.com. Chordie works as a search engine and provides on-the-fly formatting. Chordie does not index songs against artists'/composers' will. To remove this song please click here.

Text color:
Chord color:
Chord grids: 
Font size:    
Page size: 

A A# B B7 C7 D D7 Db Db7 E F F# F#7 G G7
Rate #2 of 13 versions

Jango Player

Login - add to songbook

SHARE PAGE  




You need to log in to post comments