Guitar Tabs, Chords and Lyrics
Major upgrade!! After one year development the new version of Chordie is now online! Please give feedback.


No Quarter   Led Zeppelin

 
 D|-12+----2-2h3p2-0--2-0-3--0------2-2h3p2-0--2-0-3--0----| *All the 0's
 A|-12+----0-0--------0-0-0--0------0-0--------0-0-0--0----| on the low D
 G|-12+----2-2--------0-0-0--0------2-2--------0-0-0--0----| string can also
 D|-12+------0--------0---0--0--------0--------0---0--0----| be played on
 A|-12+---------------3---5--------------------3---5-------| the 12th fret
 D|-12+---------------3---5------0*------------3---5-------| harmonic
 D|----2-2h3p2-0--2-0-3--0------2-2h3p2-0--2-0-3--0----|
 A|----0-0--------0-0-0--0------0-0--------0-0-0--0----|
 G|----2-2--------0-0-0--0------2-2--------0-0-0--0----|
 D|------0--------0---0--0--------0--------0---0--0----|
 A|---------------3---5--------------------3---5-------|
 D|-0-------------3---5------0-------------3---5-------|

 


 


 [---]  


 

 
 D|---------------------------2-2h3p2-0--2-0-3--0--|
 A|---0-0--3-3---5-5--7-7-----0-0--------0-0-0--0--|
 G|---2-2--5-5---7-7--9-9-----2-2--------0-0-0--0--|
 D|---0-0--0-0---0-0--0-0-------0--------0---0--0--|
 A|---2-2--5-5---7-7--9-9-------0--------3---5-----|
 D|------------------------0-------------3---5-----|
 D|------------------------2-2h3p2-0--2-0-3--0----|
 A|-----3-3--3--5----------0-0--------0-0-0--0----|
 G|-----5-5--5--7----------2-2--------0-0-0--0----|
 D|-----0-0--0--0------------0--------0---0--0----|
 A|---0-5-5--5--5------------0--------3---5-------|
 D|----------------5----0-------------3---5-------|

 


 


 [---]  


 

 
 D|----------------------------------------------------------------|
 A|---0-0--3--3--5-5--5/6------------------------------------------|
 G|---2-2--5--5--7-7--7/8------------------------------------------|
 D|---0-0--0--0--0-0--0-0------------------------------------------|
 A|---2-2--3--3--5-5--7/6-----1---0---1---0---1---1/6--0--6--0--6--|
 D|---------------------------1---0---1---0---1---1/6--0--6--0--6--|
 D|----------------------------------------------------------------|
 A|---------------------------------------5-5-6-5--5-6-5--5-6-5----|
 G|---------------------------------------7-7/8\7--7/8\7--7/8\7----|
 D|---------------------------------------0-0-0-0--0-0-0--0-0-0----|
 A|--6--6----6--6----5-----3--2--2-0------7-7/8\7--7/8\7--7/8\7----|
 D|--6--6----6--6----5-----3--2--2-0-------------------------------|
 D|----------------------------------------------------------------|
 A|---------------------------------------5-5/6\5--5/6\5--5/6\5----|
 G|---------------------------------------7-7/8\7--7/8\7--7/8\7----|
 D|---------------------------------------0-0-0-0--0-0-0--0-0-0----|
 A|--6--6----6--6----5-----3--2--2-0------7-7/8\7--7/8\7--7/8\7----|
 D|--6--6----6--6----5-----3--2--2-0-------------------------------|

 


 


 [---]  


 

 
 D|-12+----2-2h3p2-0--2-0-3--0------2-2h3p2-0--2-0-3--0----|
 A|-12+----0-0--------0-0-0--0------0-0--------0-0-0--0----|
 G|-12+----2-2--------0-0-0--0------2-2--------0-0-0--0----|
 D|-12+------0--------0---0--0--------0--------0---0--0----|
 A|-12+---------------3---5--------------------3---5-------|
 D|-12+---------------3---5------0-------------3---5-------|

 


 


 *


 

 
 D|-----2-2h3p2-0--2-0-3--0-----2-2h3p2-0--2-0-3--0----12+|
 A|-----0-0--------0-0-0--0-----0-0--------0-0-0--0----12+| *Note: Ending
 G|-----2-2--------0-0-0--0-----2-2--------0-0-0--0----12+| harmonic can be
 D|-------0--------0---0--0-------0--------0---0--0----12+| played on the
 A|----------------3---5-------------------3---5-------12+| 5th, 7th, or
 D|--0-------------3---5-----0-------------3---5-------12+| 12th frets.


Important: The song above is NOT stored on the Chordie server. The original song is hosted at www.guitaretab.com. Chordie works as a search engine and provides on-the-fly formatting. Chordie does not index songs against artists'/composers' will. To remove this song please click here.

This song is displayed as text-only. Transposing and tuning is only available for chordpro-songs.
Rate #0 of 2 versions

Jango Player

Login - add to songbook

SHARE PAGE  



You need to log in to post comments