Guitar Tabs, Chords and Lyrics
Major upgrade!! After one year development the new version of Chordie is now online! Please give feedback.


Kashmir   Led Zeppelin

 
 D|-------------------------------------------------------------------------|
 A|-------------------------------------------------------------------------|
 G|-2-2-2---2-2-2---3-3-3---3-3-3---4-4-4---4-4-4---5-5-5---5-5-5---7-7-7---|
 D|-0-0-0---0-0-0---0-0-0---0-0-0---0-0-0---0-0-0---0-0-0---0-0-0---0-0-0---|
 A|-5-5-5---5-5-5---5-5-5---5-5-5---5-5-5---5-5-5---5-5-5---5-5-5---5-5-5---|
 D|---------------0---------------0---------------0---------------0---------|

 


 


 v ^ v ^ v ^ v v ^ V ^ v ^ v v ^ v ^ v ^ v v ^ v ^ v ^ v


 

 
 D|-----------------------------------------------------------------|
 A|-----------------------------------------------------------------|
 G|-2-2-2---3-3-3---3-3-3---4-4-4---4-4-4---5-5-5---5-5-5---7-7-7---|
 D|-0-0-0---0-0-0---0-0-0---0-0-0---0-0-0---0-0-0---0-0-0---0-0-0---|
 A|-5-5-5---5-5-5---5-5-5---5-5-5---5-5-5---5-5-5---5-5-5---5-5-5---|
 D|-------0---------------0---------------0---------------0---------|

 


 


 v ^ v ^ v ^ v v ^ v ^ v ^ v v ^ v ^ v ^ v v ^ v ^


 

 
 D|-----------------------------------------------------------|
 A|-----------------------------------------------------------|
 G|-2-2-2---3-3-3---3-3-3---4-4-4---4-4-4---5-5-5---5-5-5-----|
 D|-0-0-0---0-0-0---0-0-0---0-0-0---0-0-0---0-0-0---0-0-0-----|
 A|-5-5-5---5-5-5---5-5-5---5-5-5---5-5-5---5-5-5---5-5-5-----|
 D|-------0---------------0---------------0---------------0---|

 


 


 [---]  


 v^ v^ v^ v^ v^v^ v^v^ v^v^ v ^ v


 

 
 D|-12-12---10-10---7-7---5-5---3-3----------|
 A|-0--0----0--0----0-0---0-0---0-0----------|
 G|-12-11---10-9----7-6---5-4---3-2----------| Repeat 2X
 D|----------------------------------3-2-0---|
 A|------------------------------------------|
 D|------------------------------------------|

 


 


 v ^ v ^ v ^ v v ^ v ^ v ^ v v ^ v ^


 

 
 D|-------------------------------------------|
 A|-------------------------------------------|
 G|-3-3-3---4-4-4---4-4-4---5-5-5---5-5-5-----|
 D|-0-0-0---0-0-0---0-0-0---0-0-0---0-0-0-----|
 A|-5-5-5---5-5-5---5-5-5---5-5-5---5-5-5-----|
 D|-------0---------------0---------------0---|

 


 


 v^ v^ v^ v^ v^v^ v^v^ v^v^ v ^ v


 

 
 D|-12-12---10-10---7-7---5-5---3-3---------|
 A|-0--0----0--0----0-0---0-0---0-0---------|
 G|-12-11---10-9----7-6---5-4---3-2---------|
 D|----------------------------------3-2-0--|
 A|-----------------------------------------|
 D|-----------------------------------------|

 


 


 v^ v^ v^ v^ v^v^ v^v^ v^v^


 

 
 D|-12-12---10-10---7-7---5-5---3-3--|
 A|-0--0----0--0----0-0---0-0---0-0--|
 G|-12-11---10-9----7-6---5-4---3-2--|
 D|----------------------------------|
 A|----------------------------------|
 D|----------------------------------|

 


 


 [---]  


 v ^ v ^ v ^ v v v v v v v v v v


 

 
 D|----------------------------------------------------------|
 A|----------------------------------------------------------|
 G|----------------------------------------------------------| Repeat 5x
 D|-3-2-0---0-2-2----2/4--2---11\2--------2----2/4--2---11\2-|
 A|-------2-----0----0----0---12\0--------0----0----0---12\0-|
 D|----------------------------------------------------------|

 


 


 [---]  


 v^ v^ v^ v^ v^v^ v^v^ v^v^ v ^ v


 

 
 D|-12-12---10-10---7-7---5-5---3-3---------|
 A|-0--0----0--0----0-0---0-0---0-0---------|
 G|-12-11---10-9----7-6---5-4---3-2---------| Repeat 2x
 D|----------------------------------3-2-0--|
 A|-----------------------------------------|
 D|-----------------------------------------|

 


 


 [---]  


 Random strums switching between these two chords shown below. I personally like to play


 lower strings (DAD) to give it more of a heavy, crunchy tone I guess.


 


 I also like to add-lib this other chord into it shown on the right. The way I play it,


 sounds awesome and I like it so I'm gonna put it in here anyways. Again, I like to play


 on three lower strings (DAD).


 


 v^ v^ v^


 

 
 D|--5------------7------------| D|--3----|
 A|--5------------7------------| A|--3----|
 G|--7------------9------------| G|--5----|
 D|--5------------7------------| D|--3----|
 A|--5------------7------------| A|--3----|
 D|--5------------7------------| D|--3----|

 


 


 [---]  


 v v v v v v v v v v v v ^ v ^ v


 

 
 D|----------------------------------------------|
 A|----------------------------------------------|
 G|-----------------------2-4-6~~~~6-7-6-5-6~~~~~| Repeat until it fades out.
 D|----------------2--3-5------------------------|
 A|----------3--5--------------------------------|
 D|--5--7--8-------------------------------------|


Important: The song above is NOT stored on the Chordie server. The original song is hosted at www.guitaretab.com. Chordie works as a search engine and provides on-the-fly formatting. Chordie does not index songs against artists'/composers' will. To remove this song please click here.

This song is displayed as text-only. Transposing and tuning is only available for chordpro-songs.
Rate #7 of 11 versions

Jango Player

Login - add to songbook

SHARE PAGE  



You need to log in to post comments