Guitar Tabs, Chords and Lyrics
Major upgrade!! After one year development the new version of Chordie is now online! Please give feedback.


You Shook Me  Led Zeppelin

Verse
Q.=54
N.C.
12/8
Gtr I
~~ ~~
 
 |---------/12-12--10-|-12------------------------|
 |--------------------|------/15-12-10------------|
 |--------------------|----------------12-9s=6\---|
 |--------------------|---------------------------|
 |--------------------|---------------------------|
 |--------------------|---------------------------|

~~
 
 |---/12-12--11-12-10------------------|
 |--------------------12-10-12-10-8s9--|
 |-------------------------------------|
 |-------------------------------------|
 |-------------------------------------|
 |-------------------------------------|

~~ ~
 
 |----------------------------|-----------------------------||
 |----------9-----------------|----------9\--4s3s4----------||
 |-9------9---9-12---/11--9-8-|-9--(9)---9\--4s3s4----------||
 |-9---/9---------------------|--------9--------------------||
 |----------------------------|-----------------------------||
 |----------------------------|---------------------0-5\--3-||

Verse
$
[E7] ~~~~
 
 ||-----------------------|--------------------------|-----------------------|
 ||o----------------------|--------------------------|-----------------------|
 ||-----------------------|------/7-9-12-(12)---9--7-|-(7)s=====6\-----------|
 ||-----------------------|----9---------------------|-----------------------|
 ||o----------------------|--------------------------|-----------------------|
 ||--0--0-0--0-0--0-/5--3-|-0------------------------|--------------0-/5--3--|

~~~
 
 |-------------------------|
 |-------------------------|
 |-----------------7-9/-12-|
 |--------------/9---------|
 |-------------------------|
 |-0--0-0--0-0-------------|

~[A7]~~~~~ ~~~~
 
 |----------------------------|--------------------------|
 |----------------------------|--------------------------|
 |-(12)---9--7-(7)--/9-(9)\---|-----7-9/-12-(12)---/9--7-|
 |----------------------------|---9----------------------|
 |----------------------------|--------------------------|
 |----------------------------|--------------------------|

To Coda
[E7] ~~
 
 |----------------------|-------------------------|
 |----------------------|--------------/12-12--10-|
 |-(7)s=====6\----------|-------------------------|
 |----------------------|-------------------------|
 |----------------------|-------------------------|
 |--------------0-/5--3-|-0--0-0--0-0-------------|

1.
[B7] ~~
 
 |-------------------------------|
 |-12----/15-12-10---------------|
 |-----------------12-(12)-12\---|
 |-------------------------------|
 |-------------------------------|
 |-------------------------------|

[A7]  
 
 |---/12-12--10-12-10-----------------|
 |--------------------12-10-12-10-8s9-|
 |------------------------------------|
 |------------------------------------|
 |------------------------------------|
 |------------------------------------|

[E7] [A7]~[E7] [B7]
 
 |-------------------------|--------------------------||
 |----------9---8----------|------9\--4s3s4----------o||
 |--------9---9-----9s11\--|-9----9\--4s3s4-----------||
 |-----/9------------------|----7---------------------||
 |-------------------------|-------------------------o||
 |-0-----------------------|-----------------0-/5--3--||

2.
[E7] ~~ ~~~~~~~~~~~~~ [A7] ~~~
 
 |----------12-----------------------|---/24-/24--22S24S22-------------------|
 |-12---/12----12-10-----------------|---------------------24-22-24-22-17s21-|
 |-------------------12-(12)-(12)\---|---------------------------------------|
 |-----------------------------------|---------------------------------------|
 |-----------------------------------|---------------------------------------|
 |-----------------------------------|---------------------------------------|

[E7] ~~~~~~~~~ [A7] ~~~~~~~~ [E7] ~~ [B7] ~~
 
 |----------------------------------------|--------16-17-18-19---------12-12\-||
 |------------------21----20---19\--17-16-|-17--17---------------10s12-12-12\-||
 |-21--(21)\-----21----21-----------------|-----------------------------------||
 |-----------/21--------------------------|-----------------------------------||
 |----------------------------------------|-----------------------------------||
 |----------------------------------------|-----------------------------------||

Organ Solo
[E7]  
 
 |----------------------|----------------------|
 |----------------------|----------------------|
 |----------------------|----------------------|
 |----------------------|----------------------|
 |----------------------|-2--2-4--4-2-----7--5-|
 |-0--0-0--0-0--0-/5--3-|-0--0-0--0-0--0-/5--3-|
 |----------------------|------------------------|
 |----------------------|------------------------|
 |----------------------|------------------------|
 |----------------------|------------------------|
 |-2--2-4--4-2-----7--5-|-2--2-4--4-2-----7--5---|
 |-0--0-0--0-0--0-/5--3-|-0--0-0--0-0--0-/5--3---|

[A7]  
 
 |-----------------------|-----------------------|
 |-----------------------|-----------------------|
 |-----------------------|-----------------------|
 |-----------------------|-----------------------|
 |-7--7-9--9-7----/7\--5-|-7--7-9--9-7----/7\--5-|
 |-5--5-5--5-5--0-/5\--3-|-5--5-5--5-5--0-/5\--3-|

[E7]  
 
 |----------------------|-------------------------|
 |----------------------|-------------------------|
 |----------------------|-------------------------|
 |----------------------|-------------------------|
 |-2--2-4--4-2-----7--5-|-2--2-------2--2-----0---|
 |-0--0-0--0-0--0-/5--3-|-0--0-/5--5-0--0-0-4-----|

[B7] [A7]  
 
 |------0------------------|-----------------------|
 |----------0---0--0---0---|------------2----2-----|
 |--------2---2------2---2-|-----------------------|
 |-------------------------|----------2-5--5-2---2-|
 |-2--2-2---2---2--2-2---2-|-0--0-3-4----------4---|
 |-------------------------|-----------------------|

[E7] [B7]  
 
 |--------------------------|-----------------------||
 |--------------------------|-----------------0---0-||
 |--------1------2------3---|-4-----------------2---||
 |--------------------------|-----------------------||
 |------2---2-/3---3-/4---4-|-5--5---0-1-2--2-2---2-||
 |-0--0---------------------|------4----------------||

Harmonica Solo
[E7]  
 
 |----------------------|----------------------|
 |----------------------|----------------------|
 |----------------------|----------------------|
 |----------------------|----------------------|
 |----------------------|-2--2-4--4-2-----7--5-|
 |-0--0-0--0-0--0-/5--3-|-0--0-0--0-0--0-/5--3-|
 |----------------------|------------------------|
 |----------------------|------------------------|
 |----------------------|------------------------|
 |----------------------|------------------------|
 |-2--2-4--4-2-----7--5-|-2--2-4--4-2-----7--5---|
 |-0--0-0--0-0--0-/5--3-|-0--0-0--0-0--0-/5--3---|

[A7]  
 
 |-----------------------|-----------------------|
 |-----------------------|-----------------------|
 |-----------------------|-----------------------|
 |-----------------------|-----------------------|
 |-7--7-9--9-7----/7\--5-|-7--7-9--9-7----/7\--5-|
 |-5--5-5--5-5--0-/5\--3-|-5--5-5--5-5--0-/5\--3-|

[E7]  
 
 |----------------------|-------------------------|
 |----------------------|-------------------------|
 |----------------------|-------------------------|
 |----------------------|-------------------------|
 |-2--2-4--4-2-----7--5-|-2--2-------2--2-----0---|
 |-0--0-0--0-0--0-/5--3-|-0--0-/5--5-0--0-0-4-----|

[B7] [A7]  
 
 |------0------------------|-----------------------|
 |----------0---0--0---0---|------------2----2-----|
 |--------2---2------2---2-|-----------------------|
 |-------------------------|----------2-5--5-2---2-|
 |-2--2-2---2---2--2-2---2-|-0--0-3-4----------4---|
 |-------------------------|-----------------------|

[E7] [B7]  
 
 |--------------------------|---------------------------||
 |--------------------------|------------------0----0---||
 |--------1------2------3---|-4------------------2------||
 |--------------------------|---------------------------||
 |------2---2-/3---3-/4---4-|-5--5---0-1-2--2--2----2---||
 |-0--0---------------------|------4--------------------||

|
| Gtr II
 
 |--------------------------|---------------------------||
 |--------------------------|--------------------9-10S9-||
 |--------------------------|-----------------/9--------||
 |--------------------------|---------------------------||
 |--------------------------|---------------------------||
 |--------------------------|---------------------------||

[E]Gtr I
~~~~~~~~~~ ~~~~~~~
 
 |-------------------------------------------|
 |-10s12----(12)--15s17---15-(15)---/12-10-9-|
 |-------------------------------------------|
 |-------------------------------------------|
 |-------------------------------------------|
 |-------------------------------------------|

|
| Gtr II
 
 |-------------------------------------------|
 |-------------------------------------------|
 |-------------------------------------------|
 |-------------------------------------------|
 |-----2--2---4---------4------5------5--5-2-|
 |-----0--0---0---------0------0------0--0-0-|

~~~~~~~~~~~~~~
 
 |-------------------------------------|
 |-10S9-(9)---(9)--(9)----------9-10-9-|
 |---------------------9-7---/9--------|
 |-------------------------------------|
 |-------------------------------------|
 |-------------------------------------|

|
 
 |-------------------------------------|
 |-------------------------------------|
 |----------0-------4----2-------------|
 |------------------x----x-------------|
 |--2----------5----5----3-------------|
 |--0-------------------------5-5--3---|

~~ ~~ ~~ ~~~~~~~~~
 
 |----------------------------15s17--16-|-(16)----------16-(16)\--------------|
 |-10s12----13s15----15s17--------------|----------------------------17-17-17-|
 |--------------------------------------|-------------------------------------|
 |--------------------------------------|-------------------------------------|
 |--------------------------------------|-------------------------------------|
 |--------------------------------------|-------------------------------------|

|
 
 |--------------------------------------|-------------------------------------|
 |--------------------------------------|-------------------------------------|
 |-----1--1-----2--2-----1--1-----------|-------------------------------------|
 |-----x--x-----x--x-----x--x-----------|-------------------------------------|
 |-----2--2-----4--4-----2--2-----------|---5---2-2-2-2------2---2-2--2--2--2-|
 |-------------------------------/5---3-|---0---0-0-0-0------0---0-0--0--0--0-|

[A]  
 
 |-19b21--19-18-17----------------------------------------19-------19-------------------|
 |-----------------20-19-17----17-20-17----17----17-19b21----19b21----19b19.5-19pb20-19-|
 |--------------------------18----------18----18----------------------------------------|
 |--------------------------------------------------------------------------------------|
 |--------------------------------------------------------------------------------------|
 |--------------------------------------------------------------------------------------|

|
 
 |--------------------------------------------------------------------------------------|
 |--------------------------------------------------------------------------------------|
 |--------------------------------------------------------------------------------------|
 |--------------------------------------------------------------------------------------|
 |--7\----------------------------------------------------------------------------------|
 |--5\----------------------------------------------------------------------------------|
 |------------------------------------------------------------------19----19b21-19-18-17-------------------|
 |-19b21-19-19b21-19-19b21-19-19b21==(19)r(19)p17----17----17-19b21----17----------------20-19-17-19-17----|
 |------------------------------------------------18----18----------------------------------------------18-|
 |---------------------------------------------------------------------------------------------------------|
 |---------------------------------------------------------------------------------------------------------|
 |---------------------------------------------------------------------------------------------------------|

|
 
 |---------------------------------------------------------------------------------------------------------|
 |---------------------------------------------------------------------------------------------------------|
 |---------------------------------------------------------------------------------------------------------|
 |---------------------------------------------------------------------------------------------------------|
 |--7\-----------------------------------------------------------------------------------------------------|
 |--5\-----------------------------------------------------------------------------------------------------|

[E] ~~~~~~~~~~~
 
 |----------------19-----------------------------------------------------------------------------|
 |-17----17-19b21----19b21==(19)--19pb20==19r-19pb21--19pb20-19pb21r(19)p17----17-19-17-19-17-19-|
 |----18--------------------------------------------------------------------18-------------------|
 |-----------------------------------------------------------------------------------------------|
 |-----------------------------------------------------------------------------------------------|
 |-----------------------------------------------------------------------------------------------|

|
 
 |-----------------------------------------------------------------------------------------------|
 |-----------------------------------------------------------------------------------------------|
 |-----------------------------------------------------------------------------------------------|
 |-----------------------------------------------------------------------------------------------|
 |--2-----------------2-------4----4-------2-----------------------------------/7-----------5----|
 |--0-----------------0-------0----0-------0------------------0----------------/5-----------3----|

~~~~~~~~ ~~~~~~~
 
 |------------------------------------------------------12-|
 |----------19-------19-----19------19------------12-14----|
 |-18--(18)----18-------18-----18------18-(18)-------------|
 |---------------------------------------------------------|
 |---------------------------------------------------------|
 |---------------------------------------------------------|

|
 
 |---------------------------------------------------------|
 |---------------------------------------------------------|
 |---------------------------------------------------------|
 |---------------------------------------------------------|
 |--2----2----------------------------------2---2--------0-|
 |--0----0--------/5--------------5---------0---0--0--4----|

[B7] ~~~~~~~ ~~~~~~~~~~~~~~
 
 |-15b17==15r-15-(15)-12----12-----------------------------------------|
 |-----------------------15----15-12---15p14p12-14---------------------|
 |-------------------------------------------------14b14.5==(14)r------|
 |---------------------------------------------------------------------|
 |---------------------------------------------------------------------|
 |---------------------------------------------------------------------|

|
 
 |---------------------0-----------------------------------------------|
 |---------------------------------0----0-----------0-------------0----|
 |---------------------------2-------2------------------------2-----2--|
 |---------------------------------------------------------------------|
 |--2--------------2---2-----------2----2-----------2---------2-----2--|
 |---------------------------------------------------------------------|

[A7] ~~~~~~~~~
 
 |-----------------------------------------------------------------10----------------------|
 |---------12b14==(12)-(12)r---12p10-12---10b12r(10)p8---8---10b12----10b12r(10)p8---8-----|
 |-------9---------------------------------------------9---------------------------9---9-7-|
 |---/11-----------------------------------------------------------------------------------|
 |-----------------------------------------------------------------------------------------|
 |-----------------------------------------------------------------------------------------|

|
 
 |-----------------------------------------------------------------------------------------|
 |--------------------------------------2------------------2-------------------------------|
 |-----------------------------------------------------------------------------------------|
 |---------------------------------2----5----------------5-2-------------------------2-----|
 |-0----------------0----3---4-----------------------------------------4-------------------|
 |-----------------------------------------------------------------------------------------|

D.S. al Coda
[E7] [B7]  
 
 |------------------------------|--------------------------||
 |------------------------------|--------------------------||
 |-9-7-9------9------9------9---|-9----(9)---9s4-----------||
 |---------/9---9--8---8--7---7-|-6----(6)---6-------------||
 |------------------------------|--------------------------||
 |------------------------------|--------------------------||

|
 
 |------------------------------|--------------------------||
 |------------------------------|-------------------0---0--||
 |------------1------2------3---|-4-------------------2----||
 |------------------------------|--------------------------||
 |----------2---2-/3---3-/4---4-|-5--5-----0-1-2--2-2---2--||
 |-0-----0----------------------|-------4------------------||

Outro
&
B7 N.C.
~~~~~~~~~~~~
 
 |-------12----12-12s17--15-(15)-(15)--/14s||=12---------------------------:
 |-/12------12-----------------------------||--------17b19-17b20-----17b20-:
 |-----------------------------------------||------------------------------:
 |-----------------------------------------||------------------------------:
 |-----------------------------------------||------------------------------:
 |-----------------------------------------||------------------------------:
 |---------------------------------------------------------:
 |-17b20r(17)-15h17p15---17b20-17b19r(17)-15h17p15---17b19-:
 |---------------------------------------------------------:
 |---------------------------------------------------------:
 |---------------------------------------------------------:
 |---------------------------------------------------------:

~~
 
 |-----------------------16b19==(16)r(16)-------------|
 |-17b19r(17)-15h17p15--------------------17-17-17\---|
 |----------------------------------------------------|
 |----------------------------------------------------|
 |----------------------------------------------------|
 |----------------------------------------------------|
 |----16pb18==(16)r(16)b18==(16)r(16)b19==(16)r-----------------:
 |----------------------------------------------17-17-(17)\-----:
 |--------------------------------------------------------------:
 |--------------------------------------------------------------:
 |--------------------------------------------------------------:
 |--------------------------------------------------------------:
 |---------------------------------------------------|
 |-12-----(12)-(12)-----(12)-(12)-----(12)--(12)-----|
 |-14b16==(14)r(14)b16==(14)r(14)b16==(14)--(14)r----|
 |---------------------------------------------------|
 |---------------------------------------------------|
 |---------------------------------------------------|
 |---------------12-14-:
 |---------12-14-------:
 |---------------------:
 |---------------------:
 |---------------------:
 |---------------------:
 |-14b15r(14)b15==(14)r(14)b15==(14)r-14-12----12\--------:------*|
 |------------------------------------------14------------:------*|
 |----------------------------------------------------2---:-1----*|
 |----------------------------------------------------2---:-2----*|
 |----------------------------------------------------0---:-2----*|
 |--------------------------------------------------0-----:-0----*|


Important: The song above is NOT stored on the Chordie server. The original song is hosted at www.guitaretab.com. Chordie works as a search engine and provides on-the-fly formatting. Chordie does not index songs against artists'/composers' will. To remove this song please click here.

Text color:
Chord color:
Chord grids: 
Font size:    
Page size: 

A A7 B7 E E7
Rate #1 of 2 versions

Jango Player

Login - add to songbook

SHARE PAGE  



You need to log in to post comments