Guitar Tabs, Chords and Lyrics
Major upgrade!! After one year development the new version of Chordie is now online! Please give feedback.


Bourrée   Leo Kottke

 
 ||--0-2-||-3--2-0----0-2-|--------0------|---------------|-------------0-2-|
 ||o-----||--------4------|-0--2-4----3-1-|-0-------------|-0---------------|
 ||------||---------------|---------------|----2-0----0-2-|---2-0-----------|
 ||------||---------------|---------------|--------4------|-------4-2-------|
 ||o-----||----0---2--0---|---------------|----0---2--0---|-----2-----------|
 ||--3-2-||-0-------------|-3--2---0--2---|-3-------------|-3-------0-2-3-2-|

 


 


 [3/4] [1/4]  

 
 |-3--2-0----0-2-|--------0------|--------------||---------||-----||
 |--------4------|-0--2-4----3-1-|-0------------||--------o||-0---||
 |---------------|---------------|----2-0-------||-0-------||---0-||
 |---------------|---------------|--------4--0--||---------||-----||
 |----0---2--0---|---------------|----3---2-----||--------o||-----||
 |-0-------------|-3--2---0--2---|-3------------||-3-------||-3---||

 


 


 [4/4]  

 
 ||--------------3---|-0-------------|---------------|----------------|
 ||o---3----1-0----3-|------3----0---|------0-1--0---|------------3---|
 ||--0----2----------|----4---5----2-|-1--2--------2-|-2------------2-|
 ||------------------|-----------0---|-2--0----------|----------------|
 ||o------0------2---|-3------0------|--------0------|-0-2-0----------|
 ||----2------3------|----4----------|-----------0---|-------3-2--2---|
 |----3---0------|----5-----------0-|---------------------|------------5-2-|
 |-0----3----0-3-|-1----5-7-(7)s2---|-3s2-2-0-----------0-|-0--------------|
 |---------------|------------------|---------3h4p3-(3)---|----------------|
 |---------------|--------0---------|-----2---4-----------|----------------|
 |----2---3------|-0--4---------1---|-2-------------------|-2-1-2-4-6--2---|
 |-3---------4---|------------------|----------------2----|----------------|
 |-3--2-0-5--0-3-|-2--0---3------|-0--5-0-2----0-|------------0---|
 |---------------|------3----3-6-|-----------2---|-4--0---------0-|
 |---------------|---------------|---------------|----------------|
 |-2--0----------|-0-------------|---------------|----------------|
 |--------4--0---|----3---2------|-3--2---0------|-2----3-2-0-----|
 |---------------|-----------3---|-----------2---|------------4---|

 


 


 1.


 

 
 |-----------------|----------------|------------------|--------------||
 |-1---3---0---1---|----------------|------------------|---------0---o||
 |-------2-------0-|-2---2---0------|------------------|-----------0--||
 |---2-4-----1-2---|---4-1-4----4-2-|-1--2-4-5-4h5p4-2-|-^2-----------||
 |-0---------------|------------0---|-2--0---2---------|-------------o||
 |---------3-------|-2-------0------|------------------|-^0------3----||

 


 


 2. H.=H


 [3/4]  

 
 |-----------------|----------------|------------------||-------*|
 |-1---3---0---1---|----------------|------------------||-------*|
 |-------2-------0-|-2---2---0------|------------------||-------*|
 |---2-4-----1-2---|---4-1-4----4-2-|-1--2-4-5-4h5p4-2-||-^2----*|
 |-0---------------|------------0---|-2--0---2---------||-------*|
 |---------3-------|-2-------0------|------------------||-^0----*|

 


 


 


 Tablature Legend


 

 
 ----------------

 


 h - hammer-on


 p - pull-off


 b - bend


 pb - pre-bend


 r - bend release (if no number after the r, then release immediately)


 /\ - slide into or out of (from/to "nowhere")


 s - legato slide


 S - shift slide


 - natural harmonic


 (n) - artificial harmonic


 n(n) - tapped harmonic


 ~ - vibrato


 tr - trill


 T - tap


 TP - trem. picking


 PM - palm muting


 \n/ - tremolo bar dip; n = amount to dip


 \n - tremolo bar down


 n/ - tremolo bar up


 /n\ - tremolo bar inverted dip


 = - hold bend; also acts as connecting device for hammers/pulls


 - volume swell (louder/softer)


 x - on rhythm slash represents muted slash


 o - on rhythm slash represents single note slash


 


 Misc Legend


 

 
 -----------


Important: The song above is NOT stored on the Chordie server. The original song is hosted at www.guitaretab.com. Chordie works as a search engine and provides on-the-fly formatting. Chordie does not index songs against artists'/composers' will. To remove this song please click here.

This song is displayed as text-only. Transposing and tuning is only available for chordpro-songs.
Rate #1 of 2 versions

Jango Player

Login - add to songbook

SHARE PAGE  




You need to log in to post comments