Guitar Tabs, Chords and Lyrics
Major upgrade!! After one year development the new version of Chordie is now online! Please give feedback.


Dance Me to the End of Love  Leonard Cohen

Subject: CRD: Leonard Cohen: Dance Me To The End Of Love
[Am]Dance me to your beauty with a [Em]burning violin
[Am]Dance me through the panic 'til I'm[Em] gathered safely in
[Am]Lift me like an olive branch and [Em]be my homeward dove
[B7/F#]Dance me to the end of [Em]love
[B7/F#]Dance me to the end of [Em]love
Oh let me see your beauty when the witnesses are gone
Let me feel you moving like they do in Babylon
Show me slowly what I only know the limits of
Dance me to the end of love
Dance me to the end of love
Dance me to the wedding now, dance me on and on
Dance me very tenderly and dance me very long
We're both of us beneath our love, we're both of us above
Dance me to the end of love
Dance me to the end of love
Dance me to the children who are asking to be born
Dance me through the curtains that our kisses have outworn
Raise a tent of shelter now, though every thread is torn
Dance me to the end of love
[Am]Dance me to your beauty with a [Em]burning violin
[Am]Dance me through the panic till I'm ga[Em]thered safely in
[Am]Touch me with your naked hand or [Em]touch me with your glove
[B7/F#]Dance me to the end of [Em]love
[B7/F#]Dance me to the end of [Em]love
[B7/F#]Dance me to the end of [Em]love
There exsit also lyrics in French and Norwegian.
If You are interested email to
Adi.Heindl@chemie.uni-regensburg.de
Pattern is something like that
[Am]  
[1] [2] [3] [4]  
 
 e:--------0----------0------|
 B:--------1----------1------|
 G:--------2----------2------|
 D:--------------2-----------|
 A:--0-----------------------|
 E:--------------------------|

p ima p ima
or variation with
[Am]  
[1] [2] [+] [3] [+] [4] [1] [2] [+] [3] [+] [4]  
 
 e:--------------------|-------------------|
 B:--1-----------1-----|--3-----------1----|
 G:--------2-----------|--------2----------|
 D:-----2--------------|-----2-------------|
 A:--0--------------2--|--0--------------2-|
 E:-----------0--------|-----------0-------|

[Em]  
[1] [2] [+] [3] [+] [4] [1] [2] [+] [3] [+] [4]  
 
 e:---------------------|-------------------|
 B:--0-----------0------|--1-----------0----|
 G:--------0------------|--------0----------|
 D:-----2-----------2---|-----2-----------2-|
 A:-----------2---------|-----------2-------|
 E:--0------------------|--0----------------|

[B7] [F#] [F#] [Em] 
[1] [2] [+] [3] [+] [4] [1] [2] [+] [3] [+] [4] [1] [2] [+] [3] [+] [4]  
 
 e:--2-----------------|--3-----------2-----|--0----------------|
 B:--------------0-----|--------------------|--------------0----|
 G:--------2-----------|--------2-----------|--------1----------|
 D:-----1--------------|-----1-----------1--|-----2-----------2-|
 A:--2--------------1--|--2-----------------|-----------2-------|
 E:-----------2--------|-----------2--------|--0----------------|

or what pattern do You think?
corrections and suggestions to the email above
Thank You for any help

Important: The song above is NOT stored on the Chordie server. The original song is hosted at www.guitaretab.com. Chordie works as a search engine and provides on-the-fly formatting. Chordie does not index songs against artists'/composers' will. To remove this song please click here.

Text color:
Chord color:
Chord grids: 
Font size:    
Page size: 

Am B7 B7/F# Em F#
Rate #4 of 11 versions

Login - add to songbook

SHARE PAGE  



You need to log in to post comments