Guitar Tabs, Chords and Lyrics
Major upgrade!! After one year development the new version of Chordie is now online! Please give feedback.


A Singer Must Die  Leonard Cohen

Leonard Cohen ? A singer must die (new skin for the old ceremony)
Verse
[Bb] [Asus2] [Cmaj7] [F]  
 
 E-------------------------------||--------------------------|
 B----3----3------0---0-----0----||----0--0----0-0----1----1-|
 G----3----3------2---2-----2--o-||----0--0----0-0----2----2-|
 D----3----3------2---2-----2--o-||----2--2----2-2----3----3-|
 A--1----------0-----------------||--3-------------------3---|
 E-------1---------------0-------||----------3------1--------|

Now the courtoom? Then read me the list?
[Am/D] [G] [C] Chorus[Esus4] [E]
 
 E-----0-0----0-0----3--3--3-3|--------------------------------|
 B-----1-1----1-1----0--0--0-0|---1-1----1-1----0-0---0-0------|
 G-----2-2----2-2----0--0--0-0|---0-0----0-0----2-2---1-1------|
 D--0------0---------0--0--0-0|---2-2----2-2----2-2---2-2------|
 A----------------------------|-3------3------2----------------|
 E-----------------3------3---|---------------------0----------|

And all the ladies go moist?
[Am] [G]  
 
 E-----0-0----0-0----3--3----3--3--|
 B-----1-1----1-1----0--0----0--0--|
 G-----2-2----2-2----0--0----0--0--|
 D-----2-2----2-2----0--0----0--0--|
 A--0-------0----------------------|
 E-----------------3-------3-------|

Final part
Bb ? Asus2, repeat

Important: The song above is NOT stored on the Chordie server. The original song is hosted at www.guitaretab.com. Chordie works as a search engine and provides on-the-fly formatting. Chordie does not index songs against artists'/composers' will. To remove this song please click here.

Text color:
Chord color:
Chord grids: 
Font size:    
Page size: 

Am Am/D Asus2 Bb C Cmaj7 E Esus4 F G
Rate #2 of 7 versions

Login - add to songbook

SHARE PAGE  



You need to log in to post comments