Guitar Tabs, Chords and Lyrics
Server problems seems to be fixed. Chordie has been experiencing problems with songs disappearing. These issues now seems to be fixed, but still verifying the fix. If you find anything strange, please email admin@chordie.com.


Age  Lianne La Havas

 
 -------------------------------------------------------------------------------

AGE - Lianne La Havas
 
 -------------------------------------------------------------------------------

Tabbed by: Alex Miller
Tuning: Standard
Chords Used:
 
 |--5--|-----|-----|-----|--2--|--4--|------|
 |--5--|--7--|--5--|--5--|--3--|--6--|--7---|
 |--6--|--7--|--5--|--7--|--2--|--4--|--5---|
 |--7--|--6--|--4--|--6--|--4--|--6--|--7---|
 |--7--|--7--|--5--|--7--|--2--|--4--|--6---|
 |--5--|-----|-----|-----|-----|-----|------|

[A] [E9] [D9] [E7] [Bm7] [C#7] [Ebdim] 
Intro:
 
 |-----------------------------|
 |--5-5-5-5---6/7-7-7--[7]-----| ( [7] means natural harmonic)
 |--6-6-6-6---6/7-7-7--[7]-----|
 |--7-7-7-7---5/6-6-6----------| X2
 |------------6/7-7-7----------|
 |--5-5-5-5----------------0---|

[A] [E9]  
Verse 1:
[A]Why do I love h[E7]im? He don't love back
[A]When I call his[E7] name, he turns his back
 
 |-------------------------|
 |---------------7-----7---|
 |------------5--------7---| (Arppegiate the Ebdim chord)
 |--------7------------6---|
 |----6----------------7---|
 |-------------------------|

[Ebdim]The weather is growing [E9]cold
And I want him ba[A]ck again[E7]
Verse 2:
[A]I kinda know this other [E7]guy but he's rather
[A]Old enough to b[E7]e my father
[Ebdim]So he's not the one for [E9]me
Cause I fancy [A]younger men[E7]
Bridge:
I'm at a [Bm7]loss
[C#7]Not a coincidence he le[D9]ft me because
My[Bm7] older man
[C#7]Was ready to love me like the [D9]woman that I am
[D9]Oooh
Chorus:
So is it such a[A] problem that [Ebdim]he's ol[E9]d?
As long as he does wha[A]tever he's[Ebdim] told[E9]
I'm glad that it's just my [A]heart that[Ebdim] he stole[E9]
And left my dignity al[A]one[E9] [A]
Verse 3:
[A]When in Rome we land[E7]ed our first kiss
[A]I slurred my words but he preten[E7]ded not to notice
[Ebdim]And then he sat down to pla[E9]y
My heart sang a sym[A]phony[E7]
So far, so[Bm7] swimmingly
[C#7]I'm glad I got out to find my fi[D9]sh in that sea
We've come so f[Bm7]ar
[C#7]So who gives a damn about the age[D9]s we are
[D9]Oooh
Chorus:
So is it such a [A]problem that h[Ebdim]e's old[E9]?
As long as he does what[A]ever he's[Ebdim] told[E9]
I'm glad that it's just my hear[A]t that [Ebdim]he stole[E9]
And left my dignity alo[A]ne[E9] [A]
So is it such a proble[A]m that he's [Ebdim]old?[E9]
As long as he does wha[A]tever he's [Ebdim]told[E9]
I know I'm gonna sur[A]vive the Dec[Ebdim]ember cold[E9]
With somebody to r[A]etrieve my lo[D9]ng lost [A]soul
With somebody to r[A]etrieve my lo[D9]ng lost s[A]oul.

Important: The song above is NOT stored on the Chordie server. The original song is hosted at www.guitaretab.com. Chordie works as a search engine and provides on-the-fly formatting. Chordie does not index songs against artists'/composers' will. To remove this song please click here.

Text color:
Chord color:
Chord grids: 
Font size:    
Page size: 

A Bm7 C#7 D9 E7 E9 Ebdim
Rate #1 of 3 versions

Jango Player

Login - add to songbook

SHARE PAGE  



You need to log in to post comments