Guitar Tabs, Chords and Lyrics
Major upgrade!! After one year development the new version of Chordie is now online! Please give feedback.


Walking Away  Lifehouse

Lifehouse - Walking Away (tune down 1/2 step) .:tabbed by 2Luke:.
 
 ------------------------

great song!
use the chords that are given Only.
some chords have complicated names so i just gave them short ones.
enjoy!
dont forget to rate/comment.
Chords Used: (tuning - down 1/2 step)
 
 -----------

[F#m7] [E] [Dsus] [Bm] [A] [Gsus] [F#m] [C#m] [G] [G/F#] [Em] [D#9] [E7M] [B11] [C7M]  
 
 e|---0-----0-----0-----2-----0-----0-----2--- |---0-----3------3------0-----0-----0-----0-----0---
 B|---0-----0-----3-----3-----2-----2-----2--- |---5-----3------3------0-----0-----0-----0-----0---
 G|---2-----1-----2-----4-----2-----2-----2--- |---6-----0------0------0-----8-----8-----8-----0---
 D|---4-----2-----0-----4-----2-----2-----4--- |---6-----0------0------2-----9-----9-----9-----2---
 A|---4-----2-----0-----2-----0-----x-----4--- |---4-----x------x------2-----6-----7-----x-----3---
 E|---------0-----------------------3-----2--- |---------3------2------0-----------------7---------

Intro
[-----]  
 
 F#m7 - E - F#m7 - E - Dsus - E - F#m7 - E

Verse 1
 
 -------

[F#m7] The sun goes do[E]wn
[F#m7] as the city lig[E]hts
[Dsus]Pave their wa[E]y
through the d[F#m7]arkest night[E]s
[F#m7] Raindrops fa[E]ll
[F#m7] as an old man cri[E]es
[Dsus] Never thoug[E]ht
to [F#m7]ever think tw[E]ice
Of [Bm]all he had
[Dsus] Of all he lo[E]st
A [Bm]selfish life
And [Dsus]guess comes with the [E]cost
 
 ------

Chorus
 
 ------

[A]Hey, remember m[Gsus]e
I remember [F#m]you w[E]alking a[Dsus]way
[A]Hey, remember m[Gsus]e
I remember [F#m]you w[E]alking a[Dsus]way
 
 -------

Verse 2
 
 -------

[F#m7] The same old str[E]eets
[F#m7] just a different n[E]ame
[Dsus] Same old h[E]ouse
[F#m7] just the family's ch[E]anged
[F#m7] Pickett fen[E]ce
[F#m7] The window st[E]ains
[Dsus] Freedom spe[E]lls
[F#m7] by a man in ch[E]ains
[Bm]Silence is [Dsus]all we have to g[E]ive
And the [Bm]memories of a life
[Dsus] I wish we'd liv[E]ed
(Repeat Chorus)
 
 -------

Verse 3
 
 -------

[C#m]From [E]all
that you [G]mad[G/F#]e[Em]
[Dsus]That you [D#9]lost[E7M] [B11]
Or threw a[Dsus]way
[C7M]Traded in for a brand new [E]life
But I c[G]an'[G/F#]t[Em]
[Dsus]Can't let[D#9] go[E7M] [B11]
Can't turn a[Dsus]round
[C7M]Hold my head high and walk [E]away
(Repeat Chorus)
___________________________________
kidİ2008?

Important: The song above is NOT stored on the Chordie server. The original song is hosted at www.guitaretab.com. Chordie works as a search engine and provides on-the-fly formatting. Chordie does not index songs against artists'/composers' will. To remove this song please click here.

Text color:
Chord color:
Chord grids: 
Font size:    
Page size: 

A B11 Bm C#m D#9 Dsus E Em F#m F#m7 G G/F# Gsus
Rate #2 of 3 versions

Jango Player

Login - add to songbook

SHARE PAGE  




You need to log in to post comments