Guitar Tabs, Chords and Lyrics
Server problems seems to be fixed. Chordie has been experiencing problems with songs disappearing. These issues now seems to be fixed, but still verifying the fix. If you find anything strange, please email admin@chordie.com.


Halfway Gone  Lifehouse

 
 -------------------------------------------------------------------------------

Halfway Gone - Lifehouse
 
 -------------------------------------------------------------------------------

Tabbed by:Dylan Norquest
Email:Dylannorquestmusic@gmail.com
Artist: Lifehouse
Song: Halfway Gone
Album: Smoke and Mirrors
Chords used:
 
 e|-------------------------------------------------------------------------|
 B|-------------------------------------------------------------------------|
 G|---6----------------9--------1-------------------------------------------|
 D|---6-----7-----9----9---Or---2-------------------------------------------|
 A|---4-----7-----9----7--------2-------------------------------------------|
 E|---------5-----7-------------0-------------------------------------------|

[C#] [A] [B] [E]  
Tuning:Standard
Intro: Fade in playing a B
Verse 1:
You were always hard to hold
[C#]So letting go ai[A]nt easy
[E]Im hanging [B]on but growing cold
[C#]While my mind is l[A]eaving
[E] [B]  
Pre Chorus:
Talk, talk is cheap
[A]Give me a word[B] you can keep
Chorus:[C#] [B]
Cause youre halfway gone and Im on way
[C#]And Im feeling, feelin feeli[A]n this way
[E]Cause Im halfway in but do[B]nt take too long
[C#]Cause Im halfway gone, Im ha[A]lfway gone
Verse 2:[E] [B]
You got one foot out the door
[C#]And choking on the[A] other
[E]Always think [B]theres something more
[C#]Its just around the[A] corner
[E] [B]  
Pre Chorus:
Talk, talk is cheap
[A]Give me a word[B] you can keep
[C#] [B]  
Chorus:
Cause youre halfway gone and Im on way
[C#]And Im feeling, feelin feeli[A]n this way
[E]Cause Im halfway in but do[B]nt take too long
[C#]Cause Im halfway gone, Im ha[A]lfway gone
[E] [B]  
If you want me out, then Im on my way
[C#]And Im feelin, feelin feeli[A]n this way
Cause you[E]re halfway in, b[B]ut dont take too long
[C#]Cause Im halfway gone, Im halfwa[A]y gone (Woah oh woah oh)
Im halfway g[E]one, Im halfway go[B]ne (Woah o[C#]h woah oh)[A]
Now Im[E] halfway gone, Im[B] halfway gon[C#]e[A]
Bridge:[E] [B]
Dont take too long
[C#]Dont take too long[A]
[E]Cause Im on my way[B]
[C#]If you take too lo[A]ng
Choru[E]s:[B]
Cause youre halfway gone and Im on way
[C#]And Im feeling, feelin feeli[A]n this way
[E]Cause Im halfway in but do[B]nt take too long
[C#]Cause Im halfway gone, Im ha[A]lfway gone
[E] [B]  
If you want me out, then Im on my way
And Im fe[C#]elin , feelin feelin[A] this way
Cause your[E]e halfway in, b[B]ut dont take too long
Cause Im hal[C#]fway gone, Im halfwa[A]y gone (Woah oh woah oh)
Cause Im hal[E]fway gone, and Im [B]halfway go[C#]ne (Woah oh wo[A]ah oh)
Cause Im hal[E]fway gone, yeah Im ha[B]lfway gone[C#] [A]
Fades out on[E] B[B]
Riff used on "Woah oh woah oh"
 
 e|---------------------------------------------------------------------------|
 B|---------------------------------------------------------------------------|
 G|----9-8-6--9-8-6-----------------------------------------------------------|
 D|---------------------------------------------------------------------------|
 A|---------------------------------------------------------------------------|
 E|---------------------------------------------------------------------------|

(Something like that)

Important: The song above is NOT stored on the Chordie server. The original song is hosted at www.guitaretab.com. Chordie works as a search engine and provides on-the-fly formatting. Chordie does not index songs against artists'/composers' will. To remove this song please click here.

Text color:
Chord color:
Chord grids: 
Font size:    
Page size: 

A B C# E
Rate #2 of 10 versions

Jango Player

Login - add to songbook

SHARE PAGE  




You need to log in to post comments