Guitar Tabs, Chords and Lyrics
Server problems seems to be fixed. Chordie has been experiencing problems with songs disappearing. These issues now seems to be fixed, but still verifying the fix. If you find anything strange, please email admin@chordie.com.


Empty Space  Lifehouse

 
 -------------------------------------------------------------------------

Lifehouse - Empty Space
 
 -------------------------------------------------------------------------

Standart Tuning
Tabbed from this link - http://www.youtube.com/watch?v=bk3naCArqHE
Chords used:
E Bm A Asus Esus F#m Z C G1 Gsus G2 Am F C2
 
 e|-0----2----0----0----0-----2----0-----0-----3----3----3-----0----0----0|
 B|-0----3----2----0----0-----2----0-----1-----3----1----0-----1----1----3|
 G|-1----4----2----2----2-----2----4-----0-----0----0----0-----2----2----0|
 D|-2----4----2----2----2-----4----4-----2-----0----0----0-----2----3----4|
 A|-2----2----0----0----2-----4----6-----3-----x----x----x-----0----3----5|
 E|-0----x----x----x----0-----2----x-----x(3)--3----3----3-----x----x----x|

Verse 1:
t[E]oo la[Bm]te to h[A]ide[Asus]
a[E]nd to[Bm]o tired[A] to ca[Asus]re
t[E]ake w[Bm]hat you[A]'ve le[Asus]ft
F#m Z E C
and forget the rest
t[E]ake w[Bm]hat you[A] see[Asus]
of w[E]hat's le[Bm]ft of m[A]e[Asus]
you k[E]now w[Bm]here I've b[A]een[Asus]
F#m Z E Esus E
and I don't want to go there again
Chorus:
you're beaut[C]iful
you're conf[G1]using[Gsus] [G2]
you're illo[Am]gical[C]
you're amaz[G]ing[E]
and I've se[C]en the world
it's overra[G1]ted[Gsus] [G2]
until you're eve[Am]rything
I have not[F]hing
but empty sp[E]ace
Verse 2:
I[E]'ve b[Bm]een dow[A]n[Asus]
t[E]his r[Bm]oad bef[A]ore[Asus]
a[E]ll th[Bm]at I've fo[A]und[Asus]
F#m Z E Esus
points me right back to you
Chorus:
you're beaut[C]iful
you're conf[G1]using[Gsus] [G2]
you're illo[Am]gical[C]
you're amaz[G]ing[E]
and I've se[C]en the world
it's overra[G1]ted[Gsus] [G2]
until you're eve[Am]rything
I have not[F]hing
but empty sp[E]ace[C]
And I'm [C2]letting go[C]
[G]Yeah[E]
you're beaut[C]iful
you're conf[G1]using[Gsus] [G2]
you're illo[Am]gical[C]
you're amaz[G]ing[E]
and I've se[C]en the world
it's overra[G1]ted[Gsus] [G2]
until you're eve[Am]rything
I have not[F]hing
until you're eve[Am]rything
I have not[F]hing
until you're eve[Am]rything
I have not[F]hing
but empty sp[E]ace

Important: The song above is NOT stored on the Chordie server. The original song is hosted at www.guitaretab.com. Chordie works as a search engine and provides on-the-fly formatting. Chordie does not index songs against artists'/composers' will. To remove this song please click here.

Text color:
Chord color:
Chord grids: 
Font size:    
Page size: 

A Am Asus Bm C C2 E F G G2 Gsus
Rate #1 of 2 versions

Jango Player

Login - add to songbook

SHARE PAGE  



You need to log in to post comments