Guitar Tabs, Chords and Lyrics
Server problems seems to be fixed. Chordie has been experiencing problems with songs disappearing. These issues now seems to be fixed, but still verifying the fix. If you find anything strange, please email admin@chordie.com.


Nerve Damage  Lifehouse

Tuning: Standard
Key:
~ = Light vibrato
\ = Slide down
/ = Slide up
h = Hammer-on
p = Pull-off
()= Ghost note or unheard note
b = Bend
r = Release bend
v = Heavy vibrato
x = String mute
< = Volume swell
Verse
Clean (let ring)
[Bm] [E9] [Em9] [Dmaj6]  
 
 |--------7~---------|--------7~------|-------------------|--------7~-------|
 |----7--------7-----|----7-------7---|----7---7h8p7--7---|----7--------7---|
 |--7---7------------|--7---7-------7-|--7---7------7-----|--7---7--------7-|
 |9--------------9\5h|6---------------|5----------------5-|4---------------/|
 |-------------------|----------------|-------------------|-----------------|
 |-------------------|----------------|-------------------|-----------------|

|-Take 2nd ending
Bm E9 V Em9 Dmaj6
 
 |--------7~---------|--------7~------|----------------|--------7~--------|
 |----7--------7-----|----7-----------|----7-8-7-------|----7---------7---|Guitar 2 repeats to begi
 |--7---7------------|--7---7---------|--7-------7---7-|--7---7-----------|nning, takes 2nd ending.
 |9--------------9\5h|6-------------6-|5-----------5---|4---------------4/|Guitar 1 keeps playing.
 |-------------------|----------------|----------------|------------------|
 |-------------------|----------------|----------------|------------------|

[Bm] [E9] [Em9/G] [Dmaj6/F#]  
 
 |--------7~---------|--------7~------|-------------------|--------7~--9~~--|
 |----7--------7-----|----7-----------|----7---7h8p7--7---|----7--(7~)(10~)-|
 |--7---7------------|--7---7---------|--7---7------7-----|--7---7----------|
 |9--------------9\5h|6-------------6-|5----------------5-|4----------------|
 |-------------------|----------------|-------------------|-----------------|
 |-------------------|----------------|-------------------|-----------------|

|-2nd Ending
Bm E9 V Em9/G
 
 |10~----------------|-----------7----|7---------------|
 |12~----------------|-----------7----|7---------------|
 |11~----------------|----------------|7---------------|
 |12~----------------|----------------|5---------------|
 |-------------------|----------------|----------------|
 |-------------------|----------------|(3)-------------|

Chorus - I gave you the chords, rhythm is easy to figure out.
Dist.
 
 |---------------------|
 |---------------------|
 |---------------------|
 |9---9---9---6---7---8| x2
 |9---9---9---7---7---9|
 |7---7---7---4---5---6|
 |-----------------------------|
 |-----------------------------|
 |-----------------------------|
 |9---9---9---5---6---6---7---2|
 |9---9---9---5---7---7---7---2|
 |7---7---7---3---4---5---5---0|
 |--------4~--------|
 |---(2/3)----------|
 |----2/4-----------|
 |------------------|
 |------------------|
 |------------------|

Verse
Clean (let ring)
[Bm] [E9] [Em9/G] [Dmaj6/F#]  
 
 |--------7~---------|--------7~------|-------------------|--------7~-------|
 |----7--------7-----|----7-------7---|----7---7h8p7--7---|----7--------7---|
 |--7---7------------|--7---7-------7-|--7---7------7-----|--7---7--------7-|
 |9--------------9\5h|6---------------|5----------------5-|4---------------/|
 |-------------------|----------------|-------------------|-----------------|
 |-------------------|----------------|-------------------|-----------------|

|-Take 2nd Ending
Bm E9 V Em9/G Dmaj6/F#
 
 |--------7~---------|--------7~------|----------------|--------7~--9~~--|
 |----7--------7-----|----7-----------|----7-8-7-------|----7--(7~)(10~)-| Guitar 2 repeats line 2,
 |--7---7------------|--7---7-------7-|--7-------7---7-|--7---7----------| takes 2nd ending.
 |9--------------9\5h|6---------------|5-----------5---|4----------------| Guitar 1 keeps playing.
 |-------------------|----------------|----------------|-----------------|
 |-------------------|----------------|----------------|-----------------|

|-2nd Ending
Bm E9 V Em9/G
 
 |10~----------------|----------------|7---------------|
 |12~----------------|-----------7----|7---------------|
 |11~----------------|----------------|7---------------|
 |12~----------------|----------------|5---------------|
 |-------------------|----------------|----------------|
 |-------------------|----------------|(3)-------------|

Chorus
Dist.
 
 |---------------------|
 |---------------------|
 |---------------------|
 |9---9---9---6---7---8| x2
 |9---9---9---7---7---9|
 |7---7---7---4---5---6|
 |-----------------------------|
 |-----------------------------|
 |-----------------------------|
 |9---9---9---5---6---6---7---2|
 |9---9---9---5---7---7---7---2|
 |7---7---7---3---4---5---5---0|

Bridge |-Played rhythmically
V
 
 |----------------|----------------|9----------10-------|
 |----------------|9b10---r----7-8-|12b14------13b15-8--|
 |9---------------|----------------|--------------------|
 |(2)-------------|----------------|--------------------|
 |(2)-------------|----------------|--------------------|
 |(0)-------------|----------------|--------------------|
 |(12)------------|-------9b10-r9v~|----------------|
 |10--------------|7--8------------|----------------|
 |----------------|----------------|/\9~------------|
 |----------------|----------------|----------------|
 |----------------|----------------|----------------|
 |----------------|----------------|----------------|
 |--------4~--------|
 |---(2h3)----------|
 |----2h4-----------|
 |------------------|
 |------------------|
 |------------------|

Verse-Solo
Bluesy dist. sound
[Bm] [E9] [Em9/G] [Dmaj6/F#]  
 
 |----------------|------------7----------|----------------|----------------|
 |----------------|----------------10-----|----------------|--------------12|
 |9v~~r7---------7|-9b10-7-9--b-------9b10|9------7--7-7-7b|-----------/11--|
 |-------9--------|-----------------------|------x---------|9---------------|
 |----------------|-----------------------|-----x----------|----------------|
 |----------------|-----------------------|----------------|----------------|

[Bm] [E9] [Em9/G] [Dmaj6/F#]  
 
 |-----------------------|------9---------|----------------|--------------------------------------|
 |-12----b15--p12p10-12-9|12--------12-14-|15b17-----------|12-12-12----12-----------12-----------|
 |-----------------------|----------------|---b16---------/|12------------------------------------|
 |-----------------------|----------------|----------------|---12-14----14--p12h14p12-------------|
 |-----------------------|----------------|----------------|-------------------------14-----14p12h|
 |-----------------------|----------------|----------------|-----------------------------h14------|

Verse
Clean (let ring)
[Bm] [E9] [Em9/G] [Dmaj6/F#]  
 
 |----------------|--------7~------|----------------|--------7~--9~--|
 |12~-------------|----7-----------|----7-8-7-------|----7--(7~)(10~)| Guitar 1 continues
 |----------------|--7---7---------|--7-------7---7-|--7---7---------| Guitar 2 plays B minor and
 |------------9\5h|6-------------6-|5-----------5---|4---------------| E ninth arpeggios again.
 |14~-------------|----------------|----------------|----------------|
 |----------------|----------------|----------------|----------------|

[Bm] [E9] [Em9/G]  
 
 |10~-------------|----------------|7~--------------|
 |12~-------------|------------7---|7~--------------|
 |11~-------------|----------------|7~--------------|
 |12~-------------|----------------|5~--------------|
 |----------------|----------------|----------------|
 |----------------|----------------|----------------|

Chorus
Dist.
 
 |---------------------|
 |---------------------|
 |---------------------|
 |9---9---9---6---7---8| x2
 |9---9---9---7---7---9|
 |7---7---7---4---5---6|
 |----------------------------|
 |----------------------------|
 |----------------------------|
 |9---9---9---5---6---6---7---|
 |9---9---9---5---7---7---7---|
 |7---7---7---3---4---5---5---|
 |---------------------|
 |---------------------|
 |---------------------|
 |9---9---9---6---7---8| x2
 |9---9---9---7---7---9|
 |7---7---7---4---5---6|
 |-------------------------------------


Important: The song above is NOT stored on the Chordie server. The original song is hosted at www.guitaretab.com. Chordie works as a search engine and provides on-the-fly formatting. Chordie does not index songs against artists'/composers' will. To remove this song please click here.

Text color:
Chord color:
Chord grids: 
Font size:    
Page size: 

Bm Dmaj6 E9 Em9 Em9/G
Rate #3 of 3 versions

Jango Player

Login - add to songbook

SHARE PAGE  




You need to log in to post comments