Guitar Tabs, Chords and Lyrics
Server problems seems to be fixed. Chordie has been experiencing problems with songs disappearing. These issues now seems to be fixed, but still verifying the fix. If you find anything strange, please email admin@chordie.com.


Seduto in riva al fosso  Ligabue

[Intro] 
[ci sono (credo) due chitarre: una suona gli accordi mentre
l'altra, con un leggero overdrive, arpeggia alcune note qua e la']
[C] [G] [Bb9] [F]  
 
 e:-0----------3--|--1----1---------------|
 B:-1----------0--|--1----1---------------|
 G:-0-------0--0--|--3----2----2-2-3-2-0--|
 D:-2---0h2----0--|--3----3--3------------|
 A:-3-3--------2--|--1----3---------------|
 E:-0----------3--|--1----1---------------|

[poi prosegue sugli accordi] 
[C] [G] [Bb9] [F]  
Ho [C]parcheggiato e camminato
[G]non so quanto non so dove [Bb9]sono qua[F]
ma [C]so soltanto che si sente
un [G]buon profumo un bel silenzio
e [Bb9]l'acqua che [F]va
lon[C]tano da me
lon[G]tano da noi
lon[Bb9]tano dalla giostra
che non [F]si ferma mai
e [C]c'ho il biglietto si'
ma questa [G]corsa la vorrei
lasciare [Bb9]fare a [F]voi
[Am] solo a v[G]oi
[Em7] la lascio fare a [F]voi
che [Bb9]io sto bene [C]qui
seduto in ri[G]va al fosso[Bb9] [F]
io sto bene [C]qui
seduto in ri[G]va al fosso[Bb9] [F]
[Assolo di cbitarra 1] 
C G Bb9 F (x2)
 
 -------------------8---|----------------------|-----------------------|---5\3-------|
 -------------8-------8-|-10^-10-8-10----------|---8^-8---------8^-----|-------------|
 -----5-5-7/9---8h9-----|-------------8h9------|---7^-7-5---5-7-7^-7-3/|5------3/5\3-|
 -5h7-------------------|-----------------10tr-|----------7------------|-------------|
 -----------------------|----------------------|-----------------------|-------------|
 -----------------------|----------------------|-----------------------|-------------|

[C]O e' il riflesso della luna
[G]o sei proprio bella se vuoi [Bb9]siediti![F]
Hai [C]parcheggiato e camminato
[G]non sai quanto non sai dove
[Bb9]sei ma sei [F]qui
lon[C]tana da te
lon[G]tana da voi
lon[Bb9]tana da uno specchio
che non [F]dice chi sei
se [C]sotto il cielo c'e' qualcosa
[G]di speciale passera' di [Bb9]qui
pri[F]ma o poi
[Am] prima o [G]poi
[Em7] e comunque tu lo [F]sai
che [Bb9]si sta bene [C]qui
seduti in ri[G]va al fos[Bb9]so
[F] stiamo bene [C]qui
seduti in ri[G]va al foss[Bb9]o.[F]
[Assolo di cbitarra 2] 
Am G Em F (x4)
 
 -----------------|---------5-7-7^-7-5-----|------------------------|
 -----------8-----|-10^tr-5-5-5----5---8tr-|-/10-6^-----------------|
 -3-3-2-/9-----9--|-12^--------------------|--------9\------2-4-5tr-|
 -3-3-3--12-14-12-|------------------------|------------------------|
 -1-1-3-----------|------------------------|--------------3---------|
 -----1-----------|------------------------|------------------------|
 |-----------------------------|-----3-----3---------|
 |-----------------------------|-------------5-3-1p0-|
 |-7h9p7\5-7-5\4h5p4p0-----2tr-|-4h5---4h5-----------|
 |---------------------5p0-----|---------------------|
 |-----------------------------|---------------------|
 |-----------------------------|---------------------|
 |------------------------------------|------5-7^--7-5-----|-8^----|
 |-5-3-0------------------------------|----5-----------8tr-|-8^--5-|
 |-------5-4-0-2-0------------5-7---7-|-7^-----------------|-------|
 |-----------------2-0-5tr-/7-----7---|--------------------|-------|
 |------------------------------------|--------------------|-------|
 |------------------------------------|--------------------|-------|

So[C]no arrivati con la guida
e[G] hanno apparecchiato
per il [Bb9]loro pic-[F]nic
con [C]sedie, tavolini,
la TV[G] i telefonini
e le [Bb9]facce di chi va
lon[C]tano da chi?
Lon[G]tano da che?
Lon[Bb9]tano per sentito dire
[F]senza un perche'
se [C]vuoi restare
resta pure [G]ho da fare
e non mi viene in [Bb9]mente [F]cos'e'
[Am] ma lo so c[G]he...
[Em] io lo so com'[F]e'
che [Bb9]state bene [C]li'
seduti in r[G]iva al fosso[Bb9] [F]
state bene [C]li'
seduti in ri[G]va al fosso[Bb9] [F]
[solo cbitarra] 
[C] [G] [Bb9] [F]  
[C]State bene li', state [G]bene li', state bene [Bb9]li'[F]
dico [C]state bene li', state [G]bene li', state bene [Bb9]li'[F] [Gm] [Dm] [C]
Solo 1 (Chitarra Pulita)
 
 E|------------------------8---6-5---5------------------------------5\3-------|
 B|---------------8-8--3/5---5-----8---5^----8------------8-------------------|
 G|-----------7H9-------------------------5--7^-7-5---5-7-7^-7--3/5-----------|
 D|7H10-10-10---------------------------------------7-------------------3/5\3-|
 A|---------------------------------------------------------------------------|
 E|---------------------------------------------------------------------------|

Solo 2 (Chitarra Distorta)
 
 E|------------------7-7H8-7----------------------------------------------------------|
 B|----8---10-----10---------10-8--/10-8----------------------------------------------|
 G|7/9---9-----/9------------------------9-------------7H9P7----7---------------------|
 D|--------------------------------------------7H9H10--------10---10-9H10P9---------7-|
 A|-----------------------------------------/7------------------------------10-10-7---|
 E|-----------------------------------------------------------------------------------|
 E|------------------------------------------------------------------------------------|
 B|----------------------------------------------------------------5P3P0---------------|
 G|-----12------12-9-7------------9------9------9------9------9----------5P4P0-2P0---0-|
 D|9H10----9H10--------10-9--9H10---9H10---9H10---9H10---9H10---9------------------2---|
 A|------------------------------------------------------------------------------------|
 E|------------------------------------------------------------------------------------|
 E|---------------------7-7H8-7--------------|
 B|----1-3-1-3^------10---------10-8-10-8----|
 G|0H2------------/9-----------------7--7-9\-|
 D|------------------------------------------|
 A|------------------------------------------|
 E|------------------------------------------|

Solo 3 (Chitarra Distorta)
 
 E|---------------------------------------------------------------------------------|
 B|------------------------------------8^8P5----------------------------------------|
 G|---------------------7-5--------5-7-------7^7P5---7---5--------------------------|
 D|3-3-3-3-3-3-3----2/5-----5--5-7-----------------7---7----7-5---------------------|
 A|3-3-3-3-3-3-3--3---------------------------------------------7-6-5---5/7-7-7/8-8-|
 E|1-1-1-1-1-1-1------------------------------------------------------8-------------|
 |---4 Volte---| |-4 Volte----------------|
 E|----------------------------------------------15--------------8--------8------------|
 B|---------------13-15-15^15P13----15----13--15^---^15-13---------10^------10^10P-----|
 G|------------------------------14----14------------------------------------------10--|
 D|------------------------------------------------------------------------------------|
 A|8/10-10-10/12-----------------------------------------------------------------------|
 E|------------------------------------------------------------------------------------|
 |------------------------Finale------------------------|
 E|------8--10^-----------------------------------------------------------|
 B|-----------------------------------------------------------------------|
 G|8tr10------------------------------3---3-2------------------------2-0--|
 D|----------------------2-5----------3-3-3-3------2-5---------------0-2--|
 A|------------------3-5---------2-5--1-3-3-3--3-5---------2-5-1-0-----3--|
 E|--------------------------3-5--------1--------------3-5---------3------|

Nella seconda e terza strofa, sopra gli accordi Am G Em F Bb,
la chit. solista suona questo (Chit. poco distorta):
 
 E|----8---8-5-7---7\5-3-3---3----1--6-|
 B|3/5---5-------3---------5---5--1--6-|
 G|-------------------------------2--7-|
 D|-------------------------------3--8-|
 A|-------------------------------3--8-|
 E|-------------------------------1--6-|

Legenda:
 
 +---------------[ INIZIO VERSIONE ALTERNATIVA ]----------------+

Solo 1 (Chitarra Pulita)
 
 E|------------------------8---6-5---5------------------------------5\3-------|
 B|---------------8-8--3/5---5-----8---5^----8------------8-------------------|
 G|-----------7H9-------------------------5--7^-7-5---5-7-7^-7--3/5-----------|
 D|7H10-10-10---------------------------------------7-------------------3/5\3-|
 A|---------------------------------------------------------------------------|
 E|---------------------------------------------------------------------------|

Solo 2 (Chitarra Distorta)
 
 E|------------------7-7H8-7----------------------------------------------------------|
 B|----8---10-----10---------10-8--/10-8----------------------------------------------|
 G|7/9---9-----/9------------------------9-------------7H9P7----7---------------------|
 D|--------------------------------------------7H9H10--------10---10-9H10P9---------7-|
 A|-----------------------------------------/7------------------------------10-10-7---|
 E|-----------------------------------------------------------------------------------|
 E|------------------------------------------------------------------------------------|
 B|----------------------------------------------------------------5P3P0---------------|
 G|-----12------12-9-7------------9------9------9------9------9----------5P4P0-2P0---0-|
 D|9H10----9H10--------10-9--9H10---9H10---9H10---9H10---9H10---9------------------2---|
 A|------------------------------------------------------------------------------------|
 E|------------------------------------------------------------------------------------|
 E|---------------------7-7H8-7--------------|
 B|----1-3-1-3^------10---------10-8-10-8----|
 G|0H2------------/9-----------------7--7-9\-|
 D|------------------------------------------|
 A|------------------------------------------|
 E|------------------------------------------|

Solo 3 (Chitarra Distorta)
 
 E|---------------------------------------------------------------------------------|
 B|------------------------------------8^8P5----------------------------------------|
 G|---------------------7-5--------5-7-------7^7P5---7---5--------------------------|
 D|3-3-3-3-3-3-3----2/5-----5--5-7-----------------7---7----7-5---------------------|
 A|3-3-3-3-3-3-3--3---------------------------------------------7-6-5---5/7-7-7/8-8-|
 E|1-1-1-1-1-1-1------------------------------------------------------8-------------|
 |---4 Volte---| |-4

Volte-|
 
 E|----------------------------------------------15--------------8--------8-----------|
 B|---------------13-15-15^15P13----15----13--15^---^15-13---------10^------10^10P----|
 G|------------------------------14----14------------------------------------------10-|
 D|-----------------------------------------------------------------------------------|
 A|8/10-10-10/12----------------------------------------------------------------------|
 E|-----------------------------------------------------------------------------------|
 |------------------------Finale------------------------------------------|
 E|------8--10^-----------------------------------------------------------|
 B|-----------------------------------------------------------------------|
 G|8tr10------------------------------3---3-2------------------------2-0--|
 D|----------------------2-5----------3-3-3-3------2-5---------------0-2--|
 A|------------------3-5---------2-5--1-3-3-3--3-5---------2-5-1-0-----3--|
 E|--------------------------3-5--------1--------------3-5---------3------|

Nella seconda e terza strofa, sopra gli accordi Am G Em F Bb,
la chit. solista suona questo (Chit. poco distorta):
 
 E|----8---8-5-7---7\5-3-3---3----1--6-|
 B|3/5---5-------3---------5---5--1--6-|
 G|-------------------------------2--7-|
 D|-------------------------------3--8-|
 A|-------------------------------3--8-|
 E|-------------------------------1--6-|

Legenda:
/ e \ : Slide
H : Hammer On
P : Pull Off
^ : Bending
tr: Tremolo
 
 +-----------------[ FINE VERSIONE ALTERNATIVA ]-----------------+


Important: The song above is NOT stored on the Chordie server. The original song is hosted at www.guitaretab.com. Chordie works as a search engine and provides on-the-fly formatting. Chordie does not index songs against artists'/composers' will. To remove this song please click here.

Text color:
Chord color:
Chord grids: 
Font size:    
Page size: 

Am Bb9 C Dm Em Em7 F G Gm
Rate #1 of 2 versions

Login - add to songbook

SHARE PAGE  



You need to log in to post comments