Guitar Tabs, Chords and Lyrics
Major upgrade!! After one year development the new version of Chordie is now online! Please give feedback.


Si viene e si va   Ligabue

 
 e:-----------------|-----------------|
 B:-3-3-3-3-3-3-1-1-|-3-3-3-3-3-3-1-1-|
 G:-0---------------|-0---------------| x 2
 D:-0---------------|-0---------------|
 A:-----------------|-----------------|
 E:-----------------|-----------------|

 


 1 . 2 . 3 . 4 . 1 . 2 . 3 . 4 .


 


 SOL DO


 Si viene e si va comunque ballando


 Mim RE Sol


 pensando una vita forse non bastera'


 DO Mim RE Do


 si viene e si va allora tenendo la vita per la coda


 Mim RE DO


 nel caso che Dio non sia in sede


 


 Si viene e si va tenendoci stretti


 tenendoci dritti che cosi' si fa


 si viene e si va per sempre


 fra gusto e dolore più o meno venendo nel mondo più o meno


 


 SOL DO Mim


 DO RE SOL


 nasci solo e solo andrai


 DO Mim RE SOL


 è in mezzo che hai quel gran bel traffico, il traffico che puoi


 


 SOL DO MIm


 Si viene e si va cercandosi un senso


 DO RE [Fill]


 che poi alla fine il senso è tutto qua


 


 [Fill]SOL DO SOL DO MIm RE DO SOL


 

 
 e:---------|-----------|---------|---------|-------------|------------|------|
 B:---------|-----------|---------|---------|-0-----3-----|-1----------|------|
 G:-/7------|----/9-\4--|/7-------|--\5-4-0-|-0-----2-----|-0-----5--4-|---/7-|
 D:---------|-----------|---------|---------|-2-----0-----|-2----------|------|
 A:---------|-----------|---------|---------|-2-----------|-3----------|------|
 E:---------|-----------|---------|---------|-------------|------------|------|

 


 [1] [2] [3] [4] [1] [2] [3] [4] [1] [2] [3] [4] [1] [2] [3] [4] [1] [2] [3] [4] [1] [2] [3] [4] 


 Si viene e si va di umana commedia


 che c'è chi la spiega e c'è chi vive e va


 si viene e si va comunque


 fischiando cantando il motivo ci serve comunque un motivo


 


 [Rit.] Vai vieni e vai come puoi


 nasci solo e solo andrai


 è in mezzo che hai quel gran bel traffico,


 DO [Solo]


 il traffico il traffico il traffico il traffico che vuoi


 


 


 [Solo] 


 [Suonato 1/8 sotto la tonalità originale] 


 [Per eseguire in tonalità originale, partire dal 12mo capotasto] 


 SOL DO MIm DO RE


 

 
 e:8^10-8----------|-8^10-8-----------|-----------------|------------------|
 B:-------8--------|------------------|-----------------|-8--/10--8---10-8-|
 G:----------------|--------9---------|-7--/9---7---9-7-|------------------|
 D:----------------|------------------|-----------------|------------------|
 A:----------------|------------------|-----------------|------------------|
 E:----------------|------------------|-----------------|------------------|

 


 1 . 2 . 3 . 4 . 1 . 2 . 3 . 4 . 1 . 2 . 3 . 4 . 1 . 2 . 3 . 4 .


 


 SOL DO MIm RE DO


 

 
 e:-----------------|-----------------|----------------|------------|
 B:-----------------|-8--/10--8--10-8-|----------------|------------|
 G:-7--/9---7---9-7-|-----------------|-------7---7-9--|-9-------/12|
 D:-----------------|-----------------|---7-9---9------|------------|
 A:-----------------|-----------------|10--------------|------------|
 E:-----------------|-----------------|----------------|------------|

 


 1 . 2 . 3 . 4 . 1 . 2 . 3 . 4 . 1 . 2 . 3 . 4 1 2 3 4


 


 MIm RE DO SOL


 

 
 e:----------------|-------------|-------|
 B:----------------|-------------|-------|
 G:-------7---7-9--|-9-------/12-|-16----|
 D:---7-9---9------|-------------|-------|
 A:10--------------|-------------|-------|
 E:----------------|-------------|-------|

 


 1 . 2 . 3 . 4 1 2 3 4


 


 Vai vieni e vai come vuoi


 nasci solo e solo andrai


 è in mezzo che hai quel gran bel traffico


 il traffico il traffico il traffico il traffico che puoi


 


 [Outro]SOL DO MIm DO RE SOL DO


 

 
 e:------------|------------|------------|---------|------------|---------|
 B:------------|------------|------------|---------|------------|---------|
 G:-4----/9-/7-|\4----/9-\7-|-4----/9-\7-|-5-7-4-5-|-7----/9-\7-|-4----/7-|
 D:------------|------------|------------|---------|------------|---------|
 A:------------|------------|------------|---------|------------|---------|
 E:------------|------------|------------|---------|------------|---------|

 


 [1] [2] [3] [4] [1] [2] [3] [4] [1] [2] [3] [4] [1] [2] [3] [4] [1] [2] [3] [4] [1] [2] [3] [4] 


 MIm RE DO MIm RE DO SOL [Rip.Intro]


 

 
 e:---------|---------|---------|---------|-----|
 B:---------|---------|---------|---------|15---|
 G:-16------|------/7-|-16------|---------|-----|
 D:---------|---------|---------|---------|-----|
 A:---------|---------|---------|---------|-----|
 E:---------|---------|---------|---------|-----|


Important: The song above is NOT stored on the Chordie server. The original song is hosted at www.guitaretab.com. Chordie works as a search engine and provides on-the-fly formatting. Chordie does not index songs against artists'/composers' will. To remove this song please click here.

This song is displayed as text-only. Transposing and tuning is only available for chordpro-songs.
Rate #2 of 3 versions

Login - add to songbook

SHARE PAGE  




You need to log in to post comments