Guitar Tabs, Chords and Lyrics
Server problems seems to be fixed. Chordie has been experiencing problems with songs disappearing. These issues now seems to be fixed, but still verifying the fix. If you find anything strange, please email admin@chordie.com.


Sulla mia strada   Ligabue

 
 e:---------------------|----------------------|---------------------|
 B:10-10-9-9-10-10-12---|10-10-9-9-10-10-12-12-|10-10-9-9-10-10-12---|
 G:---------------------|----------------------|---------------------|
 D:---------------------|----------------------|---------------------|
 A:---------------------|----------------------|---------------------|
 E:---------------------|----------------------|---------------------|

 


 1 . 2 . 3 . 4 . 1 . 2 . 3 . 4 . 1 . 2 . 3 . 4 .


 


 LAm [Intro/Riff2/Rit] MI7+/SOL#


 

 
 e:--------------------|-----------------|-------------------|
 B:10-10-9-9-10-10-----|-10----9-9-------|-------9----9----9-|
 G:----------------9---|---------------9-\-9-------11---11---|
 D:--------------------|-----------------|-------------------|
 A:--------------------|-----------------|-------------------|
 E:--------------------|-----------------|-------------------|

 


 1 . 2 . 3 . 4 . 1 . 2 . 3 . 4 . 1 . 2 . 3 . 4 .


 


 LA LAm MI MI7+/SOL#


 

 
 e:-----------------|-------------------|-----------------|-----------------|
 B:10-----9-9-------|-------9----9----9-|12-------------12|12-------------9-|
 G:---------------9-\-9-------11---11---|-------9-9-------|-------9-9-------|
 D:-----------------|-------------------|-----------------|-----------------|
 A:-----------------|-------------------|-----------------|-----------------|
 E:-----------------|-------------------|-----------------|-----------------|

 


 1 . 2 . 3 . 4 . 1 . 2 . 3 . 4 . 1 . 2 . 3 . 4 . 1 . 2 . 3 . 4 .


 


 LA LAm


 

 
 e:-------------------|-----------------||
 B:10-10----9-9-------|-------9-9-------||
 G:-----------------9-|-9---------------||
 D:-------------------|-----------------||
 A:-------------------|-----------------||
 E:-------------------|-----------------||

 


 1 . 2 . 3 . 4 . 1 . 2 . 3 . 4 .


 


 MI MImaj7/SOL# LA


 C'e' chi mi vuole come vuole


 LAm MI


 un po' piu' santo piu' criminale


 MImaj7/SOL# LA


 un po' piu' nuovo, un po' piu' uguale


 LAm


 mi vuole come vuole


 


 [Riff] 


 


 C'e' chi mi vuole per cliente


 chi non mi vuole mai per niente


 e' c'e' chi vuole le mie scuse


 che cio' che sono l'ha offeso


 SIm LA


 Di' un po' te come ti vogliono?


 SIm LA


 di' un po' tu come ti vuoi?


 MI


 Tu come ti vuoi?


 


 


 


 MI maj7/SOL# LA LAm


 [Rit] Sono vivo abbastanza, sono vivo abbastanza


 MI maj7/SOL# LA


 per di qua, comunque vada


 LAm


 sempre sulla mia strada


 


 [Riff] 


 


 C'e' chi mi vuole piu' me stesso


 e piu' profondo, piu' maledetto


 e bravo padre e bravo a letto


 c'e' chi mi vuole perfetto


 Di' un po' te come ti vogliono?


 di' un po' tu come ti vuoi?


 Tu come ti vuoi?


 


 [Rit] Sono vivo abbastanza, sono vivo abbastanza


 per di qua, comunque vada


 sempre sulla mia strada


 


 [Solo] 


 

 
 e:-------------------------------------------------|
 B:-9----------9/10--10\9--9-----poi--------9/10/12-|
 G:------------------------------dopo---------------|
 D:-------------------------------------------------|
 A:-------------------------------------------------|
 E:-------------------------------------------------|


Important: The song above is NOT stored on the Chordie server. The original song is hosted at www.guitaretab.com. Chordie works as a search engine and provides on-the-fly formatting. Chordie does not index songs against artists'/composers' will. To remove this song please click here.

This song is displayed as text-only. Transposing and tuning is only available for chordpro-songs.
Rate #1 of 3 versions

Login - add to songbook

SHARE PAGE  




You need to log in to post comments