Guitar Tabs, Chords and Lyrics
Major upgrade!! After one year development the new version of Chordie is now online! Please give feedback.


Una vita da mediano   Ligabue

 
 -2--2-0-2-0-2---
 -3--3-----------
 -2--2-----------
 ----------------
 ----------------
 ----------------

 


 


 Nel ritornello, per avere un effetto simile a quello del Liga, bisogna


 suonare la prima corda alternatamente a vuoto e con l'anulare sul secondo


 tasto (che secondo questi accordi non dovrebbe muoversi di lì, come il


 mediano. Ehm, battutaccia....).


 


 [Versione alternativa di Alessandro Marini] 


 [Grazie a Tigers ed a Cristian Gabbanini] 


 


 [capo sul 5° tasto] 


 


 [Intro/Outro]RE5/9 LA4/6 MIm7/9


 

 
 e:-2---2--0-2-0-2---|-----2--0-2-0-0---------|-----2--0-2-0-2-------|
 B:-3---3--3-3-3-3---|-3---3--3-3-3-3---------|-----3--3-3-3-3-------|
 G:-2---2--2-2-2-2---|-2---2--2-2-2-2---------|-0---0--0-0-0-0-------|
 D:-0---0------------|-2---2----------------2-|-2---2----------------|
 A:------------------|------------------0^2---|-2--------------------|
 E:------------------|------------------------|-0----------------0-2-|

 


 


 SOL


 

 
 e:------------------|
 B:-----3--3-3-3-3---|
 G:-----0--0-0-0-0---|
 D:-0---0--0-0-0-----|
 A:-2---2------2-----|
 E:-3----------------|

 


 


 re


 una vita da mediano


 la4/6


 a recuperar palloni


 


 [mi-7/9] nato senza i piedi buoni


 sol


 lavorare sui polmoni


 


 re


 una vita da mediano


 la4/6


 con dei compiti precisi


 [mi-7/9] a coprire certe zone


 sol


 a giocare generosi


 


 re


 [Rit] lì


 la4/6


 sempre lì


 [mi-7/9] lì nel mezzo


 sol


 finchè ce n'hai stai lì


 


 una vita da mediano


 da chi segna sempre poco


 che il pallone devi darlo


 a chi finalizza il gioco


 


 una vita da mediano


 che natura non ti ha dato


 nè lo spunto della punta


 nè del 10 che peccato


 


 [Rit] lì


 sempre lì


 lì nel mezzo


 finchè ce n'hai stai lì


 


 stai lì


 sempre lì


 lì nel mezzo


 finchè ce n'hai


 finche ce n'hai


 stai lì


 


 [Solo]SIm RE SIm RE


 

 
 e:---------|---------|-2-----2-|-----2---|---------|---------|-2-------|
 B:-3-----3-|-----3---|---3-----|-3-------|-3-----3-|-----3---|-3-------|
 G:---4-----|-4-------|-----2---|---2-----|---4-----|-4-------|-2-------|
 D:-----4---|---4-----|---------|---------|-----4---|---4-----|---------|
 A:---------|---------|---------|---------|---------|---------|---------|
 E:---------|---------|---------|---------|---------|---------|---------|

 


 [1] [2] [3] [4] [1] [2] [3] [4] [1] [2] [3] [4] [1] [2] [3] [4] [1] [2] [3] [4] [1] [2] [3] [4] [1] [2] [3] [4]  

 
 e:---------|-----2---|-5-2-----|---------|---------|-----2---|-5-2-----|
 B:-------3-|---3---3-|-3---3---|-2-3-2-3-|-------3-|-3-----4-|-3---3---|
 G:-----4---|-4-------|-2-----2-|---------|-----4---|-4-------|-2-----2-|
 D:-----4---|---------|---------|---------|-----4---|---------|---------|
 A:---------|---------|---------|---------|---------|---------|---------|
 E:---------|---------|---------|---------|---------|---------|---------|

 


 


 


 SIm MIm MIm


 

 
 e:---------|---------|---------|---------|---------|---------|---------|
 B:---------|-3-----3-|-----3---|---------|---------|---------|---------|
 G:---------|---4-----|-4-------|-----0---|---------|-------0-|---------|
 D:---------|-----4---|---4-----|---2-----|---------|-----2---|---------|
 A:-0-2-5---|---------|---------|-2-------|---------|---2-----|---------|
 E:---------|---------|---------|---------|---------|-0-------|---------|

 


 [1] [2] [3] [4] [1] [2] [3] [4] [1] [2] [3] [4] [1] [2] [3] [4] [1] [2] [3] [4] [1] [2] [3] [4] [1] [2] [3] [4]  

 
 e:---------|---------|-----2---|-5-2-----|---------|---------|---------|
 B:-2-3-2-3-|-------3-|---3---3-|-3---3---|-2-3-2-3-|-3/5-3---|---------|
 G:---------|-----4---|-4-------|-2-----2-|---------|---------|---/5--2-|
 D:---------|-----4---|---------|---------|---------|---------|---------|
 A:---------|---------|---------|---------|---------|---------|---------|
 E:---------|---------|---------|---------|---------|---------|---------|

 


 


 SOL


 

 
 e:---------|---------|
 B:-3-------|---------|
 G:-0-------|---------|
 D:-0-------|---------|
 A:-2-------|---------|
 E:-3-------|---------|

 


 [1] [2] [3] [4] [1] [2] [3] [4]  

 
 e:---------|---------|
 B:---------|---------|
 G:---------|---------|
 D:---5---4-|---------|
 A:---------|---0-----|
 E:---------|---------|


Important: The song above is NOT stored on the Chordie server. The original song is hosted at www.guitaretab.com. Chordie works as a search engine and provides on-the-fly formatting. Chordie does not index songs against artists'/composers' will. To remove this song please click here.

This song is displayed as text-only. Transposing and tuning is only available for chordpro-songs.
Rate #2 of 6 versions

Login - add to songbook

SHARE PAGE  




You need to log in to post comments