Guitar Tabs, Chords and Lyrics
Server problems seems to be fixed. Chordie has been experiencing problems with songs disappearing. These issues now seems to be fixed, but still verifying the fix. If you find anything strange, please email admin@chordie.com.


Almeno credo   Ligabue

 
 e:--------7---------|
 B:-4h5--7---7--5-4--|
 G:------------------|
 D:------------------|
 A:------------------|
 E:------------------|

 


 


 [Versione alternativa per 2 cbitarre] 


 [Intro Guit 1] 


 

 
 e:---------|-7-----|---------|-7-----|----------|-7-----|---------|-7-----|
 B:---4^5-7-|---7---|---4^5-7-|---7---|----4^5-7-|---7---|---4^5-7-|---7---|
 G:---------|-----4-|---------|-----4-|----------|-----4-|---------|-----4-|
 D:---------|-------|---------|-------|----------|-------|---------|-------|
 A:---------|-------|---------|-------|----------|-------|---------|-------|
 E:---------|-------|---------|-------|----------|-------|---------|-------|

 


 1 2 . 3 1 2 3 1 2 . 3 1 2 3 1 2 . 3 1 2 3 1 2 . 3 1 2 3


 

 
 e:---------|-------|---------|-------||---------|-7-----|---------|-7-----|
 B:---------|-------|---------|-------||---4---7-|---7---|---7---4-|---7---|
 G:---------|-------|---------|-------||-4-------|-----4-|-4-------|-----4-|
 D:---------|-------|---------|-------||---------|-------|---------|-------|
 A:---------|-------|---------|-------||---------|-------|---------|-------|
 E:---------|-------|---------|-------||---------|-------|---------|-------|

 


 [Guit 2/Outro] 


 


 SI SI/LA#


 Credo che ci voglia un Dio ed anche un bar


 SOL#m7 FA#


 Credo che stanotte ti verrò a trovare


 MI SI LA MI


 Per dirci tutto quello che dobbiamo dire o almeno credo


 


 SI SI/LA#


 Credo proprio che non sia già tutto qui


 SOL#m7 FA#


 E certi giorni invece credo sia così


 MI SI LA MI


 Credo al tuo odore e al modo in cui mi fai sentire a questo credo


 


 SOL#m7 FA#


 [Rit] Qua nessuno c'ha il libretto d'istruzioni


 MI


 credo che ognuno si faccia il giro


 SI /LA#


 Come viene a suo modo


 SOL#m7 FA#


 Qua non c'è mai stato solo un mondo solo


 MI


 credo a quel tale che dice in giro


 SI /LA#


 Che l'amore porta amore


 SI SI/LA# SOL#m7 FA#


 credo


 LA MI SI SI/LA# SOL#m7 FA#


 Se ti serve chiamami scemo ma io almeno credo


 LA MI


 Se ti basta chiamami scemo che io almeno


 


 Credo nel rumore di chi sa tacere


 Che quando smetti di sperare inizi un po' a morire


 Credo al tuo amore e a quello che mi tira fuori o almeno credo


 


 Credo che ci sia qualcosa chiuso a chiave


 E che ogni verità può fare bene e fare male


 Credo che adesso mi devi far sentir le mani che a quelle credo


 


 [Rit] Qua nessuno c'ha il libretto d'istruzioni


 credo che ognuno si faccia il giro


 Come viene a suo modo


 Qua non c'è mai stato solo un mondo solo


 credo a quel tale che dice in giro


 Che l'amore chiama amore


 


 [Solo] 


 

 
 e:-------|---------|-------|----------|---------|---------|-------|---------|
 B:-------|---------|-------|----------|---------|---------|-------|---------|
 G:-------|-8-\4----|-------|-8-\4-----|---------|-8-\4----|-------|-8-\11---|
 D:-------|---------|-------|----------|---------|---------|-------|---------|
 A:-------|---------|-------|----------|---------|---------|-------|---------|
 E:-------|---------|-------|----------|---------|---------|-------|---------|

 


 [1] [2] [3] [1] [2] [3] [1] [2] [3] [1] [2] [3] [1] [2] [3] [1] [2] [3] [1] [2] [3] [1] [2] [3]  

 
 e:-------|---------|-------|----------|---------|---------|-------|---------|
 B:-------|---------|-------|----------|---------|---------|-------|---------|
 G:-------|-8-------|-------|----------|---------|-8-------|-------|---------|
 D:-------|-9--9----|-------|----------|-9-------|-9--9----|-------|---------|
 A:-------|-9-------|-------|----------|-9-------|---------|-------|---------|
 E:-6-----|---------|-------|----------|-6-------|---------|-------|---------|

 


 


 | Questa parte 2 volte |


 

 
 e:|-------------|------------------|-------------|------------||
 B:|-------------|------------------|-------------|------------||
 G:|-------------|-8----\4(2nda-\11)|-------------|-8--\4------||
 D:|-------------|------------------|-------------|------------||
 A:|-------------|------------------|-------------|------------||
 E:|-------------|------------------|-------------|------------||

 


 1 . 2 . 3 . 1 . 2 . 3 . 1 . 2 . 3 . 1 2 3


 

 
 e:|-------------|------------------|-------------|------------||
 B:|-------------|------------------|-------------|----/9---12-||
 G:|-8-9-8-9-8---|-8--9-/11-8-------|-8-9-8-9-8---|-11---------||
 D:|-----------9-|-------------9----|-----------9-|------------||
 A:|-------------|------------------|-------------|------------||
 E:|-------------|------------------|-------------|------------||

 


 


 [Rit] Qua nessuno c'ha il libretto d'istruzioni


 credo che ognuno si faccia il giro


 Come viene a suo modo


 Qua non c'è mai stato solo un mondo solo


 credo a quel tale che dice in giro


 Che l'amore porta amore


 credo


 Se ti serve chiamami scemo ma io almeno credo


 Se ti basta chiamami scemo che io almeno


 


 [Outro] 


 1 2 . 3 1 2 3 1 2 . 3 1 2 3


 

 
 e:---------|-7-----|---------|-7-----|
 B:---4---7-|---7---|---7---4-|---7---|
 G:-4-------|-----4-|-4-------|-----4-| x 2
 D:---------|-------|---------|-------|
 A:---------|-------|---------|-------|
 E:---------|-------|---------|-------|


Important: The song above is NOT stored on the Chordie server. The original song is hosted at www.guitaretab.com. Chordie works as a search engine and provides on-the-fly formatting. Chordie does not index songs against artists'/composers' will. To remove this song please click here.

This song is displayed as text-only. Transposing and tuning is only available for chordpro-songs.
Rate #1 of 2 versions

Jango Player

Login - add to songbook

SHARE PAGE  




You need to log in to post comments