Guitar Tabs, Chords and Lyrics
Server problems seems to be fixed. Chordie has been experiencing problems with songs disappearing. These issues now seems to be fixed, but still verifying the fix. If you find anything strange, please email admin@chordie.com.


E   Ligabue

 
 G:------|-----------------|--------------|-----------------|--------------|
 D:------|-----------------|------------3-|-0-0-------------|--------------|
 A:-0----|--------(0)0-1-0-|-1-1------1---|--------(0)0-1-0-|-1-1------0---|
 E:----3-|-1-1-------------|--------------|-----------------|------------3-|

 


 3 4 1 . 2 3 . 4 . 1 . 2 3 . 4 1 . 2 3 . 4 . 1 . 2 3 . 4


 


 [(FA)] E il cielo non smette


 (SIb)


 e sono in gran tiro


 (REm) (SIb)


 le tipe che entrano al Vox


 o[(FA)]ppure al Corallo


 (SIb)


 e più in là c'è Kingo


 (REm) (SIb)


 che è già nudo in nome del rock


 DO REm


 e in una balera son già all'hully gully


 SIb FA |SOLm LAm|SIb


 l'orchestra da ballo c'ha un'altra serata a Pavia


 


 |FA |SIb |REm |SIb |


 [Rit] E ci sono anch'io


 


 E c'è un'altra rissa


 un rito, una messa


 che puzza un bel po' di routine


 


 o è solo un bisogno


 una specie di impegno


 che prendi con non si sa chi


 e una ha lasciato il suo peggio in bottega


 si mette un ombretto che inquieta ma è rosso allegria


 


 [Rit] E ci sono anch'io


 


 FA SIb


 qui la notte picchia bene


 FA SIb


 su chi molla e su chi tiene


 FA SIb


 qui la notte picchia forte


 FA SIb [Solo]


 gatti svelti vite storte


 


 [Solo]FA SIb REm


 

 
 e:-----------------|-----------------|---------------------|
 B:-----------------|-----1---3-1-----|-------10\8\6--8-6---|
 G:-----------------|---3---3-----3---|---------------------|
 D:---------7-3-----|-----------------|---------------------|
 A:--/3-5-8---------|-----------------|---------------------|
 E:-----------------|-----------------|---------------------|

 


 1 . 2 . 3 . 4 . 1 . 2 . 3 . 4 . 1 . 2 . 3 . 4 .


 


 

 
 e:-5---------5-5-5-|-6---------6-6-6-|-5-------------5-5-5-|
 B:-6---------6-6-6-|-----------6-6-6-|---------------6-6-6-|
 G:-5---------------|-----------------|---------------------|
 D:-----------------|-----------------|---------------------|
 A:-----------------|-----------------|---------------------|
 E:-----------------|-----------------|---------------------|

 


 


 SIb FA


 

 
 e:--------------------|----------|
 B:--------------------|-8--------|
 G:-------7-/10-7-10-7-|----10----|
 D:--------------------|----------|
 A:--------------------|----------|
 E:--------------------|----------|

 


 1 . 2 . 3 . 4 . 1 .


 

 
 e:-6--------6-----8---|----------|
 B:----------6-----6---|----------|
 G:--------------------|----------|
 D:--------------------|----------|
 A:--------------------|----------|
 E:--------------------|----------|


Important: The song above is NOT stored on the Chordie server. The original song is hosted at www.guitaretab.com. Chordie works as a search engine and provides on-the-fly formatting. Chordie does not index songs against artists'/composers' will. To remove this song please click here.

This song is displayed as text-only. Transposing and tuning is only available for chordpro-songs.
Rate #1 of 2 versions

Jango Player

Login - add to songbook

SHARE PAGE  



You need to log in to post comments