Guitar Tabs, Chords and Lyrics
Major upgrade!! After one year development the new version of Chordie is now online! Please give feedback.


Freddo cane in questa palude  Ligabue

~~~~~~~~~~~~~~~~~~~~~~~~~~~~
FREDDO CANE IN QUESTA PALUDE
~~~~~~~~~~~~~~~~~~~~~~~~~~~~
F#10m xx4224
(NdTigers: la TAB era (purtroppo) in formato DOC, percio'
ho dovuto convertirla in caratteri fixed. Spero si capisca
qualcosa)
Eccoti una versione tab della canzone di Ligabue " Freddo cane in questa
palude", anche se non molto fedele all' originale, secondo me divertente
e orecchiabile. Naturalmente molto migliorabile e conto su tutti....
Grazie e ciao :-))
Freddo cane in questa palude
Ritmo blues lento, facendo suonare molto le note
Intro:
 
 e----------------------/---------------------/-----|
 b----------------------/---------------------/-----|
 g----------------------/---------------------/-----|
 d--------------2*------/------------2*-------/-----|
 a---------4---------4--/--------4-------4----/-----|
 E----2-----------------/----2----------------/-----|

La nota * va tenuta ancora di pi, magari vibrandola
 
 e------------------------------------------------|
 b------------------------------------------------|
 g------------------------------------------------|
 d--------------2*--------------------2*----------|
 a---------4---------4------------4---------4-----|
 E----2---------------------2---------------------|

Freddo cane in questa palude
 
 --------------------------------------------|
 ----------------------------------2---------| + Do#, Do , Si, come nella canzone
 ----------------------------2---------------|
 --------------------2-----------------------|
 --------------4-----------------------------|
 -----2--------------------------------------|

i coccodrilli a quest' ora cenano-o-o-o-o
Provatelo e miglioratelo, se vi va
Bologna Stefano
F#10m
Freddo cane in questa palude
i miei amici fanno scherzi idioti sai:
loro [C#m]spengono la sera e si nasco[C]ndono
B F#10m
nei fossi per vedere come me la caverei
Freddo cane e carne cruda
i coccodrilli a quest'ora cenano
io non [C#m]ho con me il fucile ma mi [C]sento come [B]Zagor
neanche [F#]questa volta mi fregano
[E7] Troppo si[B7]lenzio
e' pos[A7]sibile che tutti dormano?
Qualche cosa urlero'

Important: The song above is NOT stored on the Chordie server. The original song is hosted at www.guitaretab.com. Chordie works as a search engine and provides on-the-fly formatting. Chordie does not index songs against artists'/composers' will. To remove this song please click here.

Text color:
Chord color:
Chord grids: 
Font size:    
Page size: 

A7 B B7 C C#m E7 F#
Rate #1 of 2 versions

Login - add to songbook

SHARE PAGE  




You need to log in to post comments