Guitar Tabs, Chords and Lyrics
Major upgrade!! After one year development the new version of Chordie is now online! Please give feedback.


I duri hanno due cuori  Ligabue

~~~~~~~~~~~~~~~~~~~~~~
I DURI HANNO DUE CUORI
~~~~~~~~~~~~~~~~~~~~~~
Parte tra una strofa e l'altra [Andrea Zanovello]
La Re La Re ~
 
 -0--2-------------0--2---------------|
 -2--3--3-2--------2--3---3-2----5----|
 -2--2------2-1-2--2--2-------2-------|
 -2--0-------------2--0---------------|
 -0----------------0------------------|
 -------------------------------------|

[NOTA: questa trascrizione mi e' stata fornita da Simone. Mi sono
permesso di abbasssarla tutta di un semitono per portarla a quella
che mi sembra la tonalita' del CD originale. Spero di non avere
toppato]
[TAB di Alessandro Marini] 
[Intro/Outro]RE FA#m MI RE FA#m MI
 
 e:-----------------|-----------------|-----------------|-----------------|
 B:-----------------|-----------5~----|-----------------|-----------5-----|
 G:-------7-7-7-7---|-----------------|-------7-7-7-7---|-----------------|
 D:-------7-7-7-7-4-|-----2-----------|-------7-7-7-7-4-|-----2-----------|
 A:---------------4-|-----2-----------|---------------4-|-----2-----------|
 E:-----------------|-----------------|-----------------|-----------------|

1 . 2 . 3 . 4 . 1 . 2 . 3 . 4 . 1 . 2 . 3 . 4 . 1 . 2 . 3 . 4 .
[Intro] [Outro] 
RE FA#m| MI LA | MI LA
 
 e:----------------|-----------------|---------|-----------------|---------|
 B:----------------|-----------------|---------|-----------------|---------|
 G:----7-7-7-7-7---|-----------2/4---|-2~------|-----------2-5\4-|-2~------|
 D:----7-7-7-7-7-4-|-----2-----------|---------|-----2-----------|---------|
 A:--------------4-|-----2-----------|---------|-----2-----------|---------|
 E:----------------|-----------------|---------|-----------------|---------|

1 . 2 . 3 . 4 . 1 . 2 . 3 . 4 . 1 2 3 4 1 . 2 . 3 . 4 . 1 2 3 4
intro: D A E D A E D A E
[A] Un quarto alle [D]dieci e Ve[F#m]leno e' seduto
da [E]Mario davanti a una[A] grappa e a un pos[D]acicche pieno.[F#m]
[E] Lo salutano[A] male[D] forse perche' sann[F#m]o tutto di lui
[E] o almeno ne sanno una[D] loro versione.[F#m]
[E] Una[A] foto di donna gli[D] brucia da dentro la[F#m] giacca
[E] chiar[A]amente dalla[D] parte del cuore[F#m]
[E] e la[A] gamba gli[D] duole del peso e del[F#m] freddo di un ca[E]nnone
che chissa' c[A]ome [D] e' riuscito a tro[F#m]vare
[E] non ha[D] tempo ne voglia di pregare Dio perche'[E]
vuol contare soltanto sul suo dolore, su sei colpi
[riff]A
e infine su di se'.
[D] [F#m] [D] [E]  
[TAB di Alessandro Marini] 
[Riff]LA RE FA#m MI
 
 e:---|---------------|-----------.-.|--------------|-2-----2--------------|
 B:--/|\------------2-|-5--------3-2-|----------3-2-|---------5-3-2-3-2--.-|
 G:-2-|-2-----2-2-4---|--------------|--------------|-------------------4--|
 D:---|---------------|--------------|-4------------|----------------------|
 A:---|---------------|--------------|--------------|----------------------|
 E:---|---------------|--------------|--------------|----------------------|

4 1 2 3 . 4 . 1 2 3 4 . 1 2 3 4 . 1 2 3 . 4 .
[A] C'e' chi ha scelto la do[D]nna sbagliata
[F#m] e forse ha scelto per tu[E]tta la vita
[A] altra scelta che ha [D]e' di farla fi[F#m]nita[E]
[A] E c'e' chi ha scritto bestem[D]mie sul cuore
[F#m] pero' i conti per se'[E] li sa fare
[A] ma il totale non cam[D]bia anche se fa star [F#m]male.[E]
[E] Pero'[C#m] non piange mai
[D]se non e' davv[E]ero solo
I [A]duri hanno due [D]cuori
col cuore [F#m]buono amano un [D]po' di [E]piu'
I [A]duri hanno due [D]cuori
col cuore [F#m]guasto
odiano [D]sempre [E]un po' di[A] piu' [D] oooh[F#m]hhh!
[D] [E] [A] [D] [F#m] [E] 
Un quarto alle due e Veleno e' seduto
sul ponte sul fiume a vedere la pistola affondare
adesso il freddo e' reale e' passato alle ossa uscendo per
forza dal cuore
di cosi tanto mondo c'e' solo un posto in cui possa tornare
e gli scappa una stramaledizione
sta pensando che la sera dopo dara' un cazzotto ad un tipo
che questa sera rideva di lui e si e' fatto sentire
dara' pugni alla porta di camera sua e urlera'
alla sua donna e al suo amico di fare piu' piano e sul suo divano
si stendera'
C'e' la notte di chi c'ha un amante
e la notte di chi non ha niente
e la notte per forza volenti o nolenti
E c'e' chi ha perso una brutta partita
ma comunque una fiche gli e'restata
e puo'darsi ci sia un altro giro di ruota
E poi non piange mai
se non e' davvero solo
I duri hanno due cuori
col cuore buono amano un po' di piu'
i duri hanno due cuori
col cuore guasto odiano sempre un po' di piu' ooooohhhhh!
outro: D E A D F#m E
D A E(tre volte questi tre accordi) A (di chiusura)

Important: The song above is NOT stored on the Chordie server. The original song is hosted at www.guitaretab.com. Chordie works as a search engine and provides on-the-fly formatting. Chordie does not index songs against artists'/composers' will. To remove this song please click here.

Text color:
Chord color:
Chord grids: 
Font size:    
Page size: 

A C#m D E F#m
Rate #2 of 3 versions

Login - add to songbook

SHARE PAGE  




You need to log in to post comments