Guitar Tabs, Chords and Lyrics
Server problems seems to be fixed. Chordie has been experiencing problems with songs disappearing. These issues now seems to be fixed, but still verifying the fix. If you find anything strange, please email admin@chordie.com.


Questa è la mia vita   Ligabue

 
 e------------------------------ e------------------------------|
 B------------------------------ B------------------------------|
 G----4/12-----------------\11-- G----4/12---------12/14\12-11--|
 D------------------------------ D------------------------------|
 A------------------------------ A------------------------------|
 E------------------------------ E------------------------------|

 


 


 [DO] 


 

 
 e------------------------------|
 B------------------------------|
 G----4/12------------------11--|
 D------------------------------|
 A------------------------------|
 E------------------------------|

 


 


 INTRO


 SOL(x3) SOL4x3 SOL*x8 DO7+x3 DOx3 DO9x8 MImx3 MImb6x3 MIm7x8


 

 
 e---------------------------------------------------------------|
 B-0------1------3--------0------1------3-------0------1------3--|
 G-0------0------0--------0------0------0-------0------0------0--|
 D-0----------------------2---------------------2----------------|
 A-2----------------------3---------------------2----------------|
 E-3--------------------------------------------0----------------|

 


 


 [RE4] [RE] 


 

 
 e-----3---3-2--------|
 B----3---------3-----|
 G---2---2--------2---|(2 volte)
 D--0---------0-------|
 A--------------------|
 E--------------------|
 e-------------|
 B-------------|
 G----4/12-----|
 D-------------|
 A-------------|
 E-------------|

 


 [SOL] Questa è la mia vita, se ho bisogno te lo dico


 


 

 
 e----------------------------------------|
 B----------------------------------------|
 G----4/12------------------12/14-----11--|
 D-----------------------12-------12------|
 A----------------------------------------|
 E----------------------------------------|

 


 [DO] Sono io che guido, io che vado fuori strada


 


 

 
 e------------------------------------------------------------------------------|
 B------------------------------------------------------------------------------|
 G----4/12------------------12---------------11------------12/14\12-11----------|
 D------------------------------------------------12/14\12-------------12/14\12-|
 A------------------------------------------------------------------------------|
 E------------------------------------------------------------------------------|
 e--------------|
 B--------------|

 


 G-12/14\12-11--|


 

 
 D--------------|
 A--------------|
 E--------------|

 


 [MIm] Sempre io che pago, non è mai successo che pa[RE4]gasse[RE]ro per [RE4] me[RE]


 


 

 
 e-------------------------------------------|
 B-------------------------------------------|
 G----4/12---------------------11------------|
 D-------------------------------------------|
 A-------------------------------------------|
 E-------------------------------------------|

 


 [SOL] Questa è la mia vita, se entri chiedimi permesso


 


 

 
 e----------------------------------------|
 B----------------------------------------|
 G----4/12------------------12/14-12--11--|
 D-----------------------12---------------|
 A----------------------------------------|
 E----------------------------------------|

 


 [DO]Portami a una gita, fammi ridere di gusto


 


 

 
 e------------------------------------------------------------------------|
 B------------------------------------------------------------------------|
 G----4/12------------------11-----------------------12/14\12-11----------|
 D-----------------------12-----------------12/14\12-------------12/14\12-|
 A------------------------------------------------------------------------|
 E------------------------------------------------------------------------|
 e--------------|
 B--------------|

 


 G-12/14\12-11--|


 

 
 D--------------|
 A--------------|
 E--------------|

 


 [MIm] Porta la tua vita che vediamo che succede a [RE4] mesco[RE]larle un [RE4] po´ [RE]


 


 

 
 e---------------------------------------------------|
 B---------------------------12--------------10------|
 G---------------------9--12--------------9------9---|
 D---------------------------------------------------|
 A---------------------------------------------------|
 E---------------------------------------------------|

 


 Ed ora che ci [LAm7] sei, dato che ci [DO] sei


 


 

 
 e-----------------------------------------------7----------|
 B------------------12----12--------------7---7-----7-------|
 G---------------------12----12-------------7---------7-----|
 D----------------------------------------------------------|
 A----------------------------------------------------------|
 E----------------------------------------------------------|

 


 Fammi fare un [SOL] giro su chi [RE/FA#] non son stato [LAm7] mai


 


 

 
 e-------------------------------------|
 B---------------------------12--------|
 G---------------------9--12-----------|
 D-------------------------------------|
 A-------------------------------------|
 E-------------------------------------|

 


 Dato che ci [DO7+] sei... come io vor[SOL]rei!


 


 (ripeti Intro)


 SOL(x3) SOL4x3 SOL*x8 DO7+x3 DOx3 DO9x8 MImx3 MImb6x3 MIm7x8


 [RE4] [RE] [RE4] [RE] 


 


 [SOL] Questa è la mia vita, sono quello che ci pensa


 [DO] Porta un paio d´ore, una notte bella densa


 [MIm] Trattamela bene, che al momento ho solo questa


 e [RE4]poi ved[RE]remo [RE4]poi [RE]


 


 [SOL] Questa è la mia vita, certi giorni non si batte


 [DO] certi altri meno, è così che va per tutti


 [MIm] Certi giorni è poca, certi giorni sembra troppa


 e in[RE4]vece [RE]non lo è [RE4]mai [RE]


 


 E ora che ci [LAm7] sei, dato che ci [DO] sei


 Fammi fare un [SOL] giro su chi [RE/FA#] non son stato [LAm7] mai


 Dato che ci [DO7+] sei... come io vor[SOL]rei!


 


 (ripeti Intro)


 SOL(x3) SOL4x3 SOL*x8 DO7+x3 DOx3 DO9x8 MImx3 MImb6x3 MIm7x8


 [RE4] [RE] [RE4] [RE] 


 


 [SOL] Questa è la mia vita, tieniteli tu i consigli


 [DO] Io non l´ho capita, figurati se tu fai meglio


 


 FILL 1


 [MIm] Porta la tua vita che vediamo che succede


 a [RE4] mesco[RE]larle un [RE4]po´ [RE4]


 


 FILL 2


 Ma ora che ci [LAm7] sei, dato che ci [DO] sei


 Fammi fare un [SOL] giro su chi [RE/FA#] non son stato [LAm7] mai


 Dato che ci [DO7+] sei... come io vor[SOL]rei!


 


 (ripeti Intro)


 SOL(x3) SOL4x3 SOL*x8 DO7+x3 DOx3 DO9x8 MImx3 MImb6x3 MIm7x8


 [RE4] [RE] [RE4] [RE] [SOL] 


 


 Fill 1 Fill 2


 

 
 |-------------------------|-----------------------------------|
 |-------------------------|-13/15--13/15--13\12--\10--\8--15--|
 |--12-12-11-11--7---------|-----------------------------------|
 |----------------7-9------|-----------------------------------|
 |-------------------------|-----------------------------------|
 |-------------------------|-----------------------------------|


Important: The song above is NOT stored on the Chordie server. The original song is hosted at www.guitaretab.com. Chordie works as a search engine and provides on-the-fly formatting. Chordie does not index songs against artists'/composers' will. To remove this song please click here.

This song is displayed as text-only. Transposing and tuning is only available for chordpro-songs.
Rate #1 of 2 versions

Login - add to songbook

SHARE PAGE  




You need to log in to post comments