Guitar Tabs, Chords and Lyrics
Major upgrade!! After one year development the new version of Chordie is now online! Please give feedback.


Radio radianti  Ligabue

~~~~~~~~~~~~~~
RADIO RADIANTI
~~~~~~~~~~~~~~
Intro: Em G Bm A Em (x2)
(Grazie per la TAB a Andrea Zanovello)
 
 --0-3-0-------------0-3-0--------0-3-0-----------0-3-0--------|
 --------3-0---------------3-0---------3-0--------------3------|
 ------------2-0---------------------------2-0------------0----|
 -----------------2----------------------------2---------------|
 --------------------------------------------------------------|
 --------------------------------------------------------------|

Harm.
 
 --0-3-0-------------0-3-0-----------------0-3-0-----------0-3-0--------|
 --------3-0---------------3-0-----5------------3-0--------------3------|
 ------------2-0------------------5-----------------2-0------------0----|
 -----------------2--------------5----------------------2---------------|
 -----------------------------------------------------------------------|
 -----------------------------------------------------------------------|

(Altra versione di Alessandro Marini)
 
 +---- +----

(Intro/Riff)MIm | 1 | 2 (2^chit)
 
 e:-----3----------|----------------|-----3----------|--------|---------|
 B:/5-------5-3----|----------------|-5-------5-3----|--------|----5-------|
 G:---------------4^4---2---0-------|---------------4^4~------|---4--------|
 D:----------------|---------(2)2-2-|----------------|--------|------------|
 A:----------------|----------------|----------------|--------|------------|
 E:----------------|----------------|----------------|--------|------------|

1 . 2 . 3 . 4 . 1 . 2 . 3 . 4 . 1 . 2 . 3 . 4 . 1 2 3 4 1 2 3 4
SIm LA MIm
 
 e:-----3----------|-----------------|-----3----------|---------|
 B:/5-------5-3----|-----------------|-5-------5-3----|---------|
 G:---------------4^4----2---0-------|---------------4^4~-------|
 D:----------------|----------(2)2-2-|----------------|---------|
 A:----------------|-----------------|----------------|---------|
 E:----------------|-----------------|----------------|---------|

1 . 2 . 3 . 4 . 1 . 2 . 3 . 4 . 1 . 2 . 3 . 4 . 1 2 3 4
[Em] Come vi va io lo so gia'
siete sintonizzati qua
state pero'[Bm]
buoni perch[A]e'
forse vi do i[Em]l tempo che fa
sapete che al mio tre
tutti dovrete ridere
sarete piu' belli cosi':
ridete e state in ordine
Radiogom[Em]mina
radioceretta
radioabbronza[Bm]nte radioge[A]l
radiocivet[Em]ta
Ditemi che non siete giu'
o la mia missione non conta piu'
ho qua per voi l'ultimo mix:
cambia la vita questo qui
Radiofelici
radiocontenti
radiosorrisi e baci smack
radio radianti
scrivimi poi
per dirmi che
mi ami quanto io amo te
noi siamo qui, quando lo vuoi
ci accendi e poi ci siamo noi
Radioamici
radiopresenti
radiocisiamosolonoi
radioabbondanti

Important: The song above is NOT stored on the Chordie server. The original song is hosted at www.guitaretab.com. Chordie works as a search engine and provides on-the-fly formatting. Chordie does not index songs against artists'/composers' will. To remove this song please click here.

Text color:
Chord color:
Chord grids: 
Font size:    
Page size: 

A Bm Em
Rate #2 of 3 versions

Jango Player

Login - add to songbook

SHARE PAGE  




You need to log in to post comments