Guitar Tabs, Chords and Lyrics
Server problems seems to be fixed. Chordie has been experiencing problems with songs disappearing. These issues now seems to be fixed, but still verifying the fix. If you find anything strange, please email admin@chordie.com.


Il giorno dei giorni  Ligabue

Song: Il Giorno Dei Giorni
Album: Nome E Cognome
Tab by John Capi
Standard Tuning
Key
/ = Slide down
\ = Slide Up
h = Hammer on
b = Bend
r = Release
x = Mute
Intro
Guitar 1
 
 e --x-x---x--x--x-x--x--x--x--|
 B --x-x---x--x--x-x--x--x--x--|
 G --x-x---x--x--x-x--x--x--x--|
 D --x-x---x--x--x-x--x--x--x--|
 A --x-x---x--x--x-x--x--x--x--|
 E --x-x---x--x--x-x--x--x--x--|
 e ------------------------------------------------------------------------------|
 B ------------------------------------------------------------------------------|
 G ------------------------------------------------------------------------------|
 D ----------------77777777777777------------------44444444444444----------------|
 A -7777777777777--55555555555555--44444444444444--22222222222222----------------|
 E -5555555555555------------------22222222222222--------------------------------|

Guitar 2
 
 e --x--------------|
 B --x--------------|
 G --x--------------|
 D --x--------------|
 A --x--------------|
 E --x--12\---------|
 e --------------------------------------------------------------------------------------------|
 B --------------------------------------------------------------------------------------------|
 G --------------------------------------------------------------------------------------------|
 D -----------11b12r11-7-7--7-7-7-7-7--11b12r11-7-7------------11b12r11-7--7-7/9-9-9-7/9-9-9---|
 A -7-7-7-7-7---------------5-5-5-5-5----------------4-4-4-4-4---------------------------------|
 E -5-5-5-5-5----------------------------------------2-2-2-2-2---------------------------------|

Guitar 3
 
 e ------------------------------------------------------------------------------|
 B -17~~--20b21r20--17~--14-15-17~--20b21r20--16-17-19-19-19-19-19-19------------|
 G ------------------------------------------------------------------------------|
 D ------------------------------------------------------------------------------|
 A ------------------------------------------------------------------------------|
 E ------------------------------------------------------------------------------|

Verse 1
Guitar 1 (0:22)
Questo passaggio va suonato varie volte, ascoltate bene per il tempo!!!
 
 e ------------------------------------------------------------------------------|
 B -9h10-10-10--9h10-10-10--9h10-10-10-10--9h10-10-10--9h10-10-10--9h10-10-10----|
 G -9--9--9--9--9--9--9--9--9--9--9--9--9--9--9--9--9--9--9--9--9--9--9--9--9----|
 D -7--7--7--7--7--7--7--7--7--7--7--7--7--7--7--7--7--7--7--7--7--7--7--7--7----|
 A ------------------------------------------------------------------------------|
 E ------------------------------------------------------------------------------|
 e ------------------------------------|
 B -10-10-12-12--10-10-12-12-----------|
 G --9--9--9--9---9--9--9--9-----------|
 D --7--7--7--7---7--7--7--7-----------|
 A ------------------------------------|
 E ------------------------------------|
 e --x-x---x--x--x-x--x--x--x-------|
 B --x-x---x--x--x-x--x--x--x-------|
 G --x-x---x--x--x-x--x--x--x-------|
 D --x-x---x--x--x-x--x--x--x-------|
 A --x-x---x--x--x-x--x--x--x-------|
 E --x-x---x--x--x-x--x--x--x--12\--|

Guitar 2 (0:40)
 
 e --------------------------------------------------------------------------------|
 B --------------------------------------------------------------------------------|
 G --------------------------------------------------------------------------------|
 D -11-11-11-9-9-9-7-6-4-4-4-2-2-2-0/--11-11-11-9-9-9-7-6-4-4-4-4-4-4-4-4----------|
 A --0--0--0-0-0-0-0-0-0-0-0-0-0-0-0/---0--0--0-0-0-0-0-0-0-0-0-0-0-0-0-0----------|
 E --------------------------------------------------------------------------------|
 e ----------------------------------------------------------------------------|
 B ----------------------------------------------------------------------------|
 G ---------------------------------------9-9-9-9-9-9-9--8-8-8-8-8-8-8---------|
 D -11-11-11-9-9-9-7-6-4-4-4-7-7-7-9-9----x-x-x-x-x-x-x--x-x-x-x-x-x-x---------|
 A --0--0--0-0-0-0-0-0-0-0-0-0-0-0-0-0----7-7-7-7-7-7-7--7-7-7-7-7-7-7---------|
 E ----------------------------------------------------------------------------|

Chorus 1 (0:59)
Guitar 1
 
 e ------------------------------------------------------------------------------|
 B ------------------------------------------------------------------------------|
 G ------------------------------------------------------------------------------|
 D ----------------77777777777777------------------44444444444444----------------|
 A -7777777777777--55555555555555--44444444444444--22222222222222----------------|
 E -5555555555555------------------22222222222222--------------------------------|

Guitar 2
 
 e --------------------------------------------------------------------------------------------|
 B --------------------------------------------------------------------------------------------|
 G --------------------------------------------------------------------------------------------|
 D -----------11b12r11-7-7--7-7-7-7-7--11b12r11-7-7------------11b12r11-7--7-7/9-9-9-7/9-9-9---|
 A -7-7-7-7-7---------------5-5-5-5-5----------------4-4-4-4-4---------------------------------|
 E -5-5-5-5-5----------------------------------------2-2-2-2-2---------------------------------|

Guitar 3
 
 e ------------------------------------------------------------------------------|
 B -17~~--20b21r20--17~--14-15-17~--20b21r20--16-17-19-19-19-19-19-19------------|
 G ------------------------------------------------------------------------------|
 D ------------------------------------------------------------------------------|
 A ------------------------------------------------------------------------------|
 E ------------------------------------------------------------------------------|

Verse 2 (1:18)
Guitar 1
 
 e ------------------------------------------------------------------------------|
 B -9h10-10-10--9h10-10-10--9h10-10-10-10--9h10-10-10--9h10-10-10--9h10-10-10----|
 G -9--9--9--9--9--9--9--9--9--9--9--9--9--9--9--9--9--9--9--9--9--9--9--9--9----|
 D -7--7--7--7--7--7--7--7--7--7--7--7--7--7--7--7--7--7--7--7--7--7--7--7--7----|
 A ------------------------------------------------------------------------------|
 E ------------------------------------------------------------------------------|
 e -----------------------------------------|
 B -10-10-12-12--10-10-12-12----------------|
 G --9--9--9--9---9--9--9--9----------------|
 D --7--7--7--7---7--7--7--7----------------|
 A -----------------------------------------|
 E ---------------------------------12\-----|

Guitar 2
 
 e --------------------------------------------------------------------------------|
 B --------------------------------------------------------------------------------|
 G --------------------------------------------------------------------------------|
 D -11-11-11-9-9-9-7-6-4-4-4-2-2-2-0/--11-11-11-9-9-9-7-6-4-4-4-4-4-4-4-4----------|
 A --0--0--0-0-0-0-0-0-0-0-0-0-0-0-0/---0--0--0-0-0-0-0-0-0-0-0-0-0-0-0-0----------|
 E --------------------------------------------------------------------------------|
 e ----------------------------------------------------------------------------|
 B ----------------------------------------------------------------------------|
 G ---------------------------------------9-9-9-9-9-9-9--8-8-8-8-8-8-8---------|
 D -11-11-11-9-9-9-7-6-4-4-4-7-7-7-9-9----x-x-x-x-x-x-x--x-x-x-x-x-x-x---------|
 A --0--0--0-0-0-0-0-0-0-0-0-0-0-0-0-0----7-7-7-7-7-7-7--7-7-7-7-7-7-7---------|
 E ----------------------------------------------------------------------------|

Chorus 2 (1:37)
Guitar 1
 
 e ----------------------------------------------------------------------|
 B ----------------------------------------------------------------------|
 G ----------------------------------------------------------------------|
 D ----------------77777777777777------------------44444444444444--------|
 A -7777777777777--55555555555555--44444444444444--22222222222222--------|
 E -5555555555555------------------22222222222222------------------------|
 e ------------------------------------------------------------------------------|
 B ------------------------------------------------------------------------------|
 G ------------------------------------------------------------------------------|
 D ----------------77777777777777--------------------7777777--4444444------------|
 A -7777777777777--55555555555555--4444444--2222222--5555555--2222222------------|
 E -5555555555555------------------2222222--0000000------------------------------|

Guitar 2
 
 e --------------------------------------------------------------------------------------------|
 B --------------------------------------------------------------------------------------------|
 G --------------------------------------------------------------------------------------------|
 D -----------11b12r11-7-7--7-7-7-7-7--11b12r11-7-7------------11b12r11-7--7-7/9-9-9-7/9-9-9---|
 A -7-7-7-7-7---------------5-5-5-5-5----------------4-4-4-4-4---------------------------------|
 E -5-5-5-5-5----------------------------------------2-2-2-2-2---------------------------------|
 e ---------------------------------------------------------------------------------------|
 B ---------------------------------------------------------------------------------------|
 G ---------------------------------------------------------------------------------------|
 D -----------11b12r11-7-7--7-7-7-7-7--11b12r11-7-7------------11b12r11-7-7--4-4-4-4-4----|
 A -7-7-7-7-7---------------5-5-5-5-5----------------4-4-4-4-4---------------2-2-2-2-2----|
 E -5-5-5-5-5----------------------------------------2-2-2-2-2----------------------------|
 e ------------------------|
 B ------------------------|
 G -8-9-11-13-14-16--------|
 D -x-x--x--x--x--x--------|
 A -6-7--9-11-12-14--------|
 E ------------------------|

Guitar 3
 
 e ------------------------------------------------------------------------------|\--- /
 B -17~~--20b21r20--17~--14-15-17~--20b21r20--16-17-19-19-19-19-19-19----------------- / \
 G ------------------------------------------------------------------------------| \- / x2
 D ------------------------------------------------------------------------------| --- /
 A ------------------------------------------------------------------------------|---- /
 E ----------------------------------------------------------------------------------- /

Solo (2:15)
Guitar 1
 
 e -----17----------------------------17-17--16b17-------------------------------------------|
 B ---------15-14----------------------------------------------------------------------------|
 G -14------------14--16b18r16----14----------------16b18r16--14-16----14-----14~13~11~9~----|
 D ----------------------------16-----------------------------------16----16-----------------|
 A ------------------------------------------------------------------------------------------|
 E ------------------------------------------------------------------------------------------|
 e --------17~--11-11--11-11--12-12--14-14---------------|
 B -------------12-12--12-12--12-12--12-12---------------|
 G -16b18~------11-11--11-11--11-11--11-11---------------|
 D -------------------------------------------7----------|
 A -------------------------------------------7----------|
 E -------------------------------------------5----------|

Durante l'assolo la chitarra 2 suona la parte di rit che varia con il E
Guitar 2
 
 e ------------------------------------------------------------------------------|
 B ------------------------------------------------------------------------------|
 G ------------------------------------------------------------------------------|
 D ----------------77777777777777--------------------7777777--4444444------------|
 A -7777777777777--55555555555555--4444444--2222222--5555555--2222222------------|
 E -5555555555555------------------2222222--0000000------------------------------|

Interlude (2:35)
Guitar 1
 
 e ------------------2-----2--------------------------------------------------------------------|
 B ------------------2-----4--------------------------------------------------------------------|
 G ----------7-------2-----4--------------------------------------------------------------------|
 D ----------7-------4-----4---6h7-7-7-6h7-7-7-6h7-7-7-6h7-7-7-6h7-7-7-6h7-7-7-6h7-7-7-6h7-7-7--|
 A ----------5-------4-----2--------------------------------------------------------------------|
 E ------------------2--------------------------------------------------------------------------|
 e ---------------------|
 B ---------------------|
 G --8-8-8-9-9-9-11-----|
 D --x-x-x-x-x-x--x-----|
 A --6-6-6-7-7-7--9-----|
 E ---------------------|

Guitar 2
 
 e -----xx----xx-----------xx----xx------------xx----xx-------------xx----xx--------|
 B -----xx----xx-----------xx----xx------------xx----xx-------------xx----xx--------|
 G -----xx----xx-----------xx----xx------------xx----xx-------------xx----xx--------|
 D -----xx----xx-------7777xx7777xx777777------xx----xx--------44444xx4444xx4444-4--|
 A -7777xx7777xx77777--5555xx5555xx555555--4444xx4444xx444444--22222xx2222xx2222-2--|
 E -5555xx5555xx55555------xx----xx--------2222xx2222xx222222-------xx----xx--------|

Chorus 3 (3:12)
Guitar 1
 
 e ----------------------------------------------------------------------|
 B ----------------------------------------------------------------------|
 G ----------------------------------------------------------------------|
 D ----------------77777777777777------------------44444444444444--------|
 A -7777777777777--55555555555555--44444444444444--22222222222222--------|
 E -5555555555555------------------22222222222222------------------------|
 e ------------------------------------------------------------------------------|
 B ------------------------------------------------------------------------------|
 G ------------------------------------------------------------------------------|
 D ----------------77777777777777--------------------7777777--4444444------------|
 A -7777777777777--55555555555555--4444444--2222222--5555555--2222222------------|
 E -5555555555555------------------2222222--0000000------------------------------|

Guitar 2
 
 e --------------------------------------------------------------------------------------------|
 B --------------------------------------------------------------------------------------------|
 G --------------------------------------------------------------------------------------------|
 D -----------11b12r11-7-7--7-7-7-7-7--11b12r11-7-7------------11b12r11-7--7-7/9-9-9-7/9-9-9---|
 A -7-7-7-7-7---------------5-5-5-5-5----------------4-4-4-4-4---------------------------------|
 E -5-5-5-5-5----------------------------------------2-2-2-2-2---------------------------------|
 e ----------------------------------------------------------------------------------------------|
 B ----------------------------------------------------------------------------------------------|
 G ----------------------------------------------------------------------------------------------|
 D -----------11b12r11-7-7--7-7-7-7-7--11b12r11-7-7------------11b12r11-11b12r11--14-14-14-14-14-|
 A -7-7-7-7-7---------------5-5-5-5-5----------------4-4-4-4-4-----------------------------------|
 E -5-5-5-5-5----------------------------------------2-2-2-2-2-----------------------------------|

Guitar 3
 
 e ------------------------------------------------------------------------------|\--- /
 B -17~~--20b21r20--17~--14-15-17~--20b21r20--16-17-19-19-19-19-19-19----------------- / \
 G ------------------------------------------------------------------------------| \- / x2
 D ------------------------------------------------------------------------------| --- /
 A ------------------------------------------------------------------------------|---- /
 E ----------------------------------------------------------------------------------- /

Outro
 
 e -------------------------------------------------------------------|
 B -------------------------------------------------------------------|
 G -------------------------------------------------------------------|
 D ----------------77777777777777--------------------7777777777--4----|
 A -7777777777777--55555555555555--4444444--2222222--5555555555--2----|
 E -5555555555555------------------2222222--0000000-------------------|

[A]Tienimi su la luce, fatti vedere meglio
[D]fare l'amore o sesso qui non ? pi? un dettaglio
[F#m]baciami la fortuna, baciami le parole che sai gi?[B]
baciami il sangue mentre gira
[A]Sei arrivata apposta? Come ci frega l'amore
[D]d? degli appuntamenti e poi viene quando gli pare
[F#m]soffia su questo tempo tienilo acceso sempre
tu che p[B]uoi, che andiamo verso
Il g[A]iorno dei giorni, s[D]enza pi? limiti
Il g[F#m]iorno dei giorni, f[B]ino a quel giorno voi non svegliateci
[A]Tienimi su la vita, cosa combina l'amore
[D]vivere i suoi effetti e non sentirsi coglione
[F#m]ogni minuto ? pieno, ogni minuto ? vero se ci se[B]i
che ? gi? partito
Il g[A]iorno dei giorni, f[D]atto per vivere
Il g[F#m]iorno dei giorni, t[B]utto da fare e niente da perdere
Il g[A]iorno dei giorni, s[D]enza pi? limiti
Il g[F#m]iorno dei gi[E]orni, a[D]ttimi e secoli, la[B]crime e brividi
[A] [D] [F#m] [E] [D] [B]  
[A]Balla
Femmina come la Terra
Femmina come la g[D]uerra
Femmina come la pace
Femmina come la c[F#m]roce
Femmina come la voce
Femmina come s[B]ai
Femmina come puoi
Femmina come la s[A]orte
Femmina come la morte
Femmina come la v[D]ita
Femmina come l'entrata
Femmina come l'us[F#m]cita
Femmina come le carte
Femmina come s[B]ai
Femmina come puoi
che siamo dentro al
G[A]iorno dei giorni, f[D]atto per vivere
Il g[F#m]iorno dei giorni, tu[B]tto da fare e niente da perdere
Il g[A]iorno dei giorni, s[D]enza pi? limiti
Il g[F#m]iorno dei gi[E]orni, a[D]ttimi e secoli, la[B]crime e brividi[A]
Femmina come la Terra
Femmina come la g[D]uerra
Femmina come la pace
Femmina come la c[F#m]roce
Femmina come la v[E]oce
Femmina come s[D]ai
Femmina come puoi[B]
Finale in B

Important: The song above is NOT stored on the Chordie server. The original song is hosted at www.guitaretab.com. Chordie works as a search engine and provides on-the-fly formatting. Chordie does not index songs against artists'/composers' will. To remove this song please click here.

Text color:
Chord color:
Chord grids: 
Font size:    
Page size: 

A B D E F#m
Rate #1 of 3 versions

Login - add to songbook

SHARE PAGE  




You need to log in to post comments