Guitar Tabs, Chords and Lyrics
Server problems seems to be fixed. Chordie has been experiencing problems with songs disappearing. These issues now seems to be fixed, but still verifying the fix. If you find anything strange, please email admin@chordie.com.


Fear of Heights  Light This City

 
 -------------------------------------------------------------------------------

Fear of Heights - Apollo Sunshine
 
 -------------------------------------------------------------------------------

Tabbed by: Mike lapoint
Email:
Tuning:EBGDAE (standard)
chords used
A - 022200
Dm- 1320xx
C - 01023x
[G#-]D#- [445664]68886x
G - 330023
[G#m]D#su[444664]s4 4431xx
[F]A#[-] -[112331] 667886
Cm- 34553x
B - 24442x
C#- 46664x
D#maj7 -68885x
[Fm-] [111331]  
I[A]'m easing o[Dm]ut Of a sing[C]le file li[G#]ne, Poss[D#]essed by early mor[G]ning d[G#]ew.[G#m]
A[D#]nd rays of li[D#sus4]ght that shine Th[D#]rough the tops of t[D#sus4]rees The teac[D#]hers herd us
to[A#]wards the bus With h[G#]ands like dried up leaves. N[D#]ot like the gr[G]een So high
ab[G#]ove and be[F]low. N[G#]ow I am an airplane
oo-ee-oo-ee-oo.
(Solo Comes in here)
A[D#] moments hesitatio[B]n
In the dream.
T[D#]his airplane's tai[B]nted by long living,
B[D#]ut in this [D#maj7]moment I am a ch[C#]ild.[G#]
W[D#]ith wings spread wide and w[G#]eaving
Through the oth[D#]ers, More than si[G#]mply fearless, [D#]I Can catch the w[D#maj7]ind
And turn cart[C#]wheels through the tr[G#]ees.
I[D#]n a halo of li[G]ght Reflecting o[G#]ff The yellow b[F]us
I[G#] catch the glares[G#m] From the grass. T[D#]he children stare
Their kn[G]ees are scabbed. Th[G#]eir chance to fly is pas[G#m]sing by
A[D#]nd on their knees Spread wri[G]nkled lines.
W[Cm]e all must [G#]die Like petals wi[D#]lt
And who am [F]I To stand on sti[G#]lts?
B[G#]ut still obliged To a[A#]sk a question sound
A[G#]s any for the asking Wh[G]ile still floating above the ground.
D[G#]o your children care to join me? No[G#m], we're all afraid
Afraid of fri[D#]ght. I don't want to be alone
Su[G]spended on parade
With a fear of heights.
[Cm] [G#] [D#] [F]  
 
 e|-------------------------------------------------------|
 B|-------------------------------------------------------|
 G|-----------1~~0-----0--------------3--2~~0-------------|
 D|---------1-------3-----3--1-----------------3----------|
 A|-3----3------------------------1-----------------------|
 E|---3---------------------------------------------------|

[G#] [A#]  
 
 e|---4-4-4-4-4-4-4-4--6-6-6-6-6-6-6-6-----|
 B|---4-4-4-4-4-4-4-4--6-6-6-6-6-6-6-6-----|
 G|---5-5-5-5-5-5-5-5--7-7-7-7-7-7-7-7-----|
 D|---6-6-6-6-6-6-6-6--8-8-8-8-8-8-8-8-----|
 A|---6-6-6-6-6-6-6-6--8-8-8-8-8-8-8-8-----|
 E|---4-4-4-4-4-4-4-4--6-6-6-6-6-6-6-6-----|

[G#] [B]  
 
 e|---4-4-4-4-4-4-4-4--7-7-7-7-7-7-7-7-----|
 B|---4-4-4-4-4-4-4-4--7-7-7-7-7-7-7-7-----|
 G|---5-5-5-5-5-5-5-5--8-8-8-8-8-8-8-8-----|
 D|---6-6-6-6-6-6-6-6--9-9-9-9-9-9-9-9-----|
 A|---6-6-6-6-6-6-6-6--9-9-9-9-9-9-9-9-----|
 E|---4-4-4-4-4-4-4-4--7-7-7-7-7-7-7-7-----|

End Chords:
A[G]h ah ah ah , a[Cm]h ah ah ah , ah[C#] ah ah ah , ah a[D#]h ah ah,
ah a[Fm]h ah ah, aaaaaa[Cm]aaaaah aaaa[G]aaah (en[C]d on C )
Tabbed by: Mike lapoint
| / slide up
| \ slide down
| h hammer-on
| p pull-off
| ~ vibrato
| + harmonic
| x Mute note

Important: The song above is NOT stored on the Chordie server. The original song is hosted at www.guitaretab.com. Chordie works as a search engine and provides on-the-fly formatting. Chordie does not index songs against artists'/composers' will. To remove this song please click here.

Text color:
Chord color:
Chord grids: 
Font size:    
Page size: 

A A# B C C# Cm D# D#maj7 Dm F Fm G G# G#m
Rate #1 of 1 versions

Login - add to songbook

SHARE PAGE  



You need to log in to post comments