Guitar Tabs, Chords and Lyrics
Server problems seems to be fixed. Chordie has been experiencing problems with songs disappearing. These issues now seems to be fixed, but still verifying the fix. If you find anything strange, please email admin@chordie.com.


Fuck You  Lily Allen

[INTRO] 
 
 G:--------|--------|--------|--------|
 D:--------|--------|--------|--------|
 A:--------|--------|--------|--------|
 E:--------|--------|--------|--------|

[VERSE] 
[E] Look inside [E] Look inside your tiny [C#m]mind Now look a bit [C#m]harder
'Cause we're [F#m]so uninspired [F#m]So sick and tired [A] Of all the hatred you [B]harbor
[E] So you say [E] It's not okay to be [C#m]gay Well I think you're just [C#m]evil
[F#m]You're just some racist who [F#m]can't tie my laces [A] Your point of view is med[B]ieval
[E] [E] [C#m] [C#m] [F#m] [F#m] [A] [B]  
 
 G:--------|--------|--------|--------|--------|--------|--------|--------|
 D:2-------|2-------|--------|--------|4-------|4-------|--------|--------|
 A:--------|--------|4-------|4-------|--------|--------|0-------|2-------|
 E:--------|--------|--------|--------|--------|--------|--------|--------|

[E] [E] [C#m] [C#m] [F#m] [F#m] [A] [B] [B]  
 
 G:--------|--------|--------|--------|--------|--------|--------|--------|--------|
 D:2-------|2-------|--------|--------|4-------|4-------|--------|--------|--------|
 A:--------|--------|4-------|4-------|--------|--------|0-------|2-------|--------|
 E:--------|--------|--------|--------|--------|--------|--------|--------|--------|

[CBORUS] 
[E] Fuck you [E] Fuck you very very [G#]much[G#]
'Cause we [C#m]hate what you do and we [C#m]hate your whole crew
So [B]please don't stay in [B]touch
[E] Fuck you [E] Fuck you very very [G#]much[G#]
'Cause your [C#m]words don't translate And it's [C#m]getting quite late
So [B]please don't stay in [B]touch
[E] [E] [G#] [G#] [C#m] [C#m] [B] [B]  
 
 G:--------|--------|1------1|-1------|--------|--------|--------|--------|
 D:2-------|2-----2-|----1---|--4-2-1-|--------|--------|--------|------1-|
 A:----2---|----2---|--------|--------|4-------|4-----4-|2-------|2-2-4---|
 E:--------|--------|--------|--------|----4---|----4---|----2---|--------|

[E] [E] [G#] [G#] [C#m] [C#m] [B] [B]  
 
 G:--------|--------|1------1|-1------|--------|--------|--------|--------|
 D:2-------|2-----2-|----1---|--4-2-1-|--------|--------|--------|------1-|
 A:----2---|----2---|--------|--------|4-------|4-----4-|2-------|2-2-4---|
 E:--------|--------|--------|--------|----4---|----4---|----2---|--------|

[VERSE] 
[E] Do you get [E] Do you get a little [C#m]kick out of being small-[C#m]minded?
You want to [F#m]be like your father It's ap[F#m]proval you're after
[A] Well that's not how you [B]find it
[E] Do you [E] Do you really en[C#m]joy living a life that's so [C#m]hateful?
'Cause there's a [F#m]hole where your soul should be You're [F#m]losing control of it
[A] And it's really dis[B]tasteful
[E] [E] [C#m] [C#m] [F#m] [F#m] [A] [B]  
 
 G:--------|--------|--------|--------|--------|--------|--------|--------|
 D:2-------|2-------|--------|--------|4-------|4-------|--------|--------|
 A:--------|--------|4-------|4-------|--------|--------|0-------|2-------|
 E:--------|--------|--------|--------|--------|--------|--------|--------|

[E] [E] [C#m] [C#m] [F#m] [F#m] [A] [B] [B]  
 
 G:--------|--------|--------|--------|--------|--------|--------|--------|--------|
 D:2-------|2-------|--------|--------|4-------|4-------|--------|--------|--------|
 A:--------|--------|4-------|4-------|--------|--------|0-------|2-------|--------|
 E:--------|--------|--------|--------|--------|--------|--------|--------|--------|

[CBORUS] 
[E] Fuck you [E] Fuck you very very [G#]much[G#]
'Cause we [C#m]hate what you do and we [C#m]hate your whole crew
So [B]please don't stay in [B]touch
[E] Fuck you [E] Fuck you very very [G#]much[G#]
'Cause your [C#m]words don't translate And it's [C#m]getting quite late
So [B]please don't stay in [B]touch
[E] [E] [G#] [G#] [C#m] [C#m] [B] [B]  
 
 G:--------|--------|1------1|-1------|--------|--------|--------|--------|
 D:2-------|2-----2-|----1---|--4-2-1-|--------|--------|--------|------1-|
 A:----2---|----2---|--------|--------|4-------|4-----4-|2-------|2-2-4---|
 E:--------|--------|--------|--------|----4---|----4---|----2---|--------|

[E] [E] [G#] [G#] [C#m] [C#m] [B] [B]  
 
 G:--------|--------|1------1|-1------|--------|--------|--------|--------|
 D:2-------|2-----2-|----1---|--4-2-1-|--------|--------|--------|------1-|
 A:----2---|----2---|--------|--------|4-------|4-----4-|2-------|2-2-4---|
 E:--------|--------|--------|--------|----4---|----4---|----2---|--------|

[BRIDGE] 
[G] Fuck you Fuck [G]you Fuck you [B] Fuck you Fuck [B]you Fuck you
[E] Fuck you Fuck [E]you Fuck you [D] Fuck you [D]
[G] [G] [B] [B] [E] [E] [D] [D]  
 
 G:0-------|0-----0-|4------4|-42-0---|--------|--------|--------|--------|
 D:----0---|----0---|----4---|------4-|2-------|2-------|0-------|0-------|
 A:--------|--------|--------|--------|----2--2|----2--2|----0--0|--------|
 E:--------|--------|--------|--------|--------|--------|--------|--------|

[VERSE] 
[E]You say [E] You think we need to go to [C#m]war Well, you're already [C#m]in one
'Cause it's [F#m]people like you who [F#m]need to get sued
[A] No one wants your o[B]pinion
[E] [E] [C#m] [C#m] [F#m] [F#m] [A] [B] [B]  
 
 G:--------|--------|--------|--------|--------|--------|--------|--------|--------|
 D:--------|--------|--------|--------|4-------|--------|--------|--------|--------|
 A:--------|--------|--------|--------|--------|--------|0-------|2-------|--------|
 E:--------|--------|--------|--------|--------|--------|--------|--------|--------|

[CBORUS] (Repeat and Fade)
[E] Fuck you [E] Fuck you very very [G#]much[G#]
'Cause we [C#m]hate what you do and we [C#m]hate your whole crew
So [B]please don't stay in [B]touch
[E] Fuck you [E] Fuck you very very [G#]much[G#]
'Cause your [C#m]words don't translate And it's [C#m]getting quite late
So [B]please don't stay in [B]touch
[E] [E] [G#] [G#] [C#m] [C#m] [B] [B]  
 
 G:--------|--------|1------1|-1------|--------|--------|--------|--------|
 D:2-------|2-----2-|----1---|--4-2-1-|--------|--------|--------|------1-|
 A:----2---|----2---|--------|--------|4-------|4-----4-|2-------|2-2-4---|
 E:--------|--------|--------|--------|----4---|----4---|----2---|--------|

[E] [E] [G#] [G#] [C#m] [C#m] [B] [B]  
 
 G:--------|--------|1------1|-1------|--------|--------|--------|--------|
 D:2-------|2-----2-|----1---|--4-2-1-|--------|--------|--------|------1-|
 A:----2---|----2---|--------|--------|4-------|4-----4-|2-------|2-2-4---|
 E:--------|--------|--------|--------|----4---|----4---|----2---|--------|

Tabbed by Michael Oxner
moxner@nbnet.nb.ca
August 19, 2011

Important: The song above is NOT stored on the Chordie server. The original song is hosted at www.guitaretab.com. Chordie works as a search engine and provides on-the-fly formatting. Chordie does not index songs against artists'/composers' will. To remove this song please click here.

Text color:
Chord color:
Chord grids: 
Font size:    
Page size: 

A B C#m D E F#m G G#
Rate #1 of 9 versions

Jango Player

Login - add to songbook

SHARE PAGE  



You need to log in to post comments