Guitar Tabs, Chords and Lyrics
Major upgrade!! After one year development the new version of Chordie is now online! Please give feedback.


Magnet   Lindsay Lohan

 
 e ----------------------------------|
 b ----------------------------------|
 g --11-11------------9-9-11---------|
 d --11-11-12--------9-9-11----------|
 a --9--9---12--------7-7-9----------|
 E-----------10----------------------|

 


 


 [Pre-Cborus] 


 


 

 
 e ----------------------------------|
 b ----------------------------------|
 g 9-9-9-9-9-9-9-9/11-11-11-11-------|
 d 9-9-9-9-9-9-9-9/11-11-11-11-------|
 a 7-7-7-7-7-7-7-7/-9--9---9--9------|
 E ----------------------------------|

 


 


 [Cborus] 


 


 

 
 e ----------------------------------|
 b ----------------------------------|
 g --11-11------------9-9-11---------|
 d --11-11-12--------9-9-11----------|
 a --9--9---12--------7-7-9----------|
 E-----------10----------------------|

 


 


 [Bridge] 


 


 

 
 e ---------------------------------------------------------|
 b ---------------------------------------------------------|
 g -----11-----------11-----------11-----------11-----------|
 d --11---11-----11---11-----11---11-----11---11------------|
 a 9-------------9------------9------------9----------------|
 E ---------------------------------------------------------|
 e --------------------------------------------------------|
 b --------------------------------------------------------|
 g ------------------------------------9--------9----------|
 d ------12-------------12---------9---9----9---9----------|
 a ---12----12------12----12---7---------7-----------------|
 E 10-------------10---------------------------------------|


Important: The song above is NOT stored on the Chordie server. The original song is hosted at www.guitaretab.com. Chordie works as a search engine and provides on-the-fly formatting. Chordie does not index songs against artists'/composers' will. To remove this song please click here.

This song is displayed as text-only. Transposing and tuning is only available for chordpro-songs.
Rate #1 of 7 versions

Jango Player

Login - add to songbook

SHARE PAGE  




You need to log in to post comments