Guitar Tabs, Chords and Lyrics
Server problems seems to be fixed. Chordie has been experiencing problems with songs disappearing. These issues now seems to be fixed, but still verifying the fix. If you find anything strange, please email admin@chordie.com.


Alone   Lisa Loeb

 
 e--------------------------------------------------1---1--1-----------------
 B------6-------6-------6-------8-------4-------3---1---1--1-----------------
 G------7-------7-------7-------8-------5-------3---2---2--2-----------------
 D----8---8---7-------7-------8-------5-------3-----3---3--3-----------------
 A--8-------6-----6-5-----5-6-------3-----3-1-----1-3---3--3-----------------
 E--------------------------------------------------1---1--1-----------------

 


 


 This is the Chorus and most of the song, Electric Guitar is distorted


 with like amp overdrive(like when you crank the little travel amp up too


 far) and the acoustic plays the same thing as well. this repeats like


 lots and lots of times throughout the song


 


 [1] [2] [+] [3] [+] [4] [1] [2] [+] [3] [+] [4] [+]  

 
 e---------------------------------------------------------------------------
 B---------------------------------------------------------------------------
 G--8----------------8-------------------------------------------------------
 D--8----7777/8888xxx8----7-77/8888------------------------------------------
 A--6----7777/8888xxx6----7-77/8888------------------------------------------
 E--6----5555/6666xxx6----5-55/6666------------------------------------------

 


 


 At one point it breaks off and does this verse, Same electric and acoustic


 playing the same thing.


 


 [1] [+] [2] [+] [3] [+] [4] [+] [1] [+] [2] [+] [3] [4] [+]  

 
 e------------------------------3--------------------------------------------
 B------------------------------3--------------------------------------------
 G------------------------------4--------------------------------------------
 D--8-8-8-8-7-7-7-7-6-6-6-6-5---5--------------------------------------------
 A--8-8-8-8-7-7-7-7-6-6-6-6-5---5--------------------------------------------
 E--6-6-6-6-5-5-5-5-4-4-4-4-3---3--------------------------------------------

 


 


 That's the Whole song. There is also another guitar playing little added


 little things at beat 4 of the main chorus riff(the second one i tabbed).


 they sound like this:


 


 

 
 e------------------------- ---11p10------------------------------------
 B------------------------- --------11----------------------------------
 G------------------------- and ----------10--------------------------------
 D---12B13b12B13b12-------- also --------------------------------------------
 A------------------------- --------------------------------------------
 E------------------------- --------------------------------------------


Important: The song above is NOT stored on the Chordie server. The original song is hosted at www.guitaretab.com. Chordie works as a search engine and provides on-the-fly formatting. Chordie does not index songs against artists'/composers' will. To remove this song please click here.

This song is displayed as text-only. Transposing and tuning is only available for chordpro-songs.
Rate #1 of 3 versions

Jango Player

Login - add to songbook

SHARE PAGE  



You need to log in to post comments