Guitar Tabs, Chords and Lyrics
Major upgrade!! After one year development the new version of Chordie is now online! Please give feedback.


Driving One of Your Cars  Lisa Miskovsky

a simple tab of the intro. Enjoy ^^
[Em] [C]  
 
 e|3-3-3-2-2-2-2-2-|3-3-3-2-2-2-2-2-|
 b|0-0-0-0-0-0-0-0-|1-1-1-1-1-1-1-1-|
 g|0-0-0-0-0-0-0-0-|0-0-0-0-0-0-0-0-|
 d|----------------|----------------|
 a|----------------|----------------|
 E|----------------|----------------|

[G] [D]  
 
 e|3-3-3-2-2-2-2-2-|3-3-3-2-2-2-2-2-| * 2
 b|3-3-3-3-3-3-3-3-|3-3-3-3-3-3-3-3-|
 g|0-0-0-0-0-0-0-0-|2-2-2-2-2-2-2-2-|
 d|----------------|----------------|
 a|----------------|----------------|
 E|----------------|----------------|

tab by Bjuv0

Important: The song above is NOT stored on the Chordie server. The original song is hosted at www.guitaretab.com. Chordie works as a search engine and provides on-the-fly formatting. Chordie does not index songs against artists'/composers' will. To remove this song please click here.

Text color:
Chord color:
Chord grids: 
Font size:    
Page size: 

C D Em G
Rate #4 of 5 versions

Login - add to songbook

SHARE PAGE  




You need to log in to post comments