Guitar Tabs, Chords and Lyrics
Major upgrade!! After one year development the new version of Chordie is now online! Please give feedback.


La musica fa  Litfiba

Date: Wed, 10 Feb 1999 18:54:28 +0100
 
 --------

Come promesso gia' da tempo...
LA MUSICA FA
Litfiba
Dall'album *Spirito*
Trascrizione: Davide Pari
data: 10.02.1999
Legenda per la tablatura:
/ o \ = slide (glissato)
h = hammer-on
p = pull-off
b = bend
r = rilasciare il bend
 
 +-+-+-+-+-+-+-+-+-+-+-+-+-+-+-+-+-+-+-+-+-+-+-+-+-+-+-+-+-+-+-+-+

[-]  
[Intro] 
Em | Am Em | Am Em G | Am Em | Am Em G |
A [Am]volte vorrei [G]vivere nell'a[Am]ria
e rimanere sospeso senza piu' o[G]staco[Em]li
gio[Am]care coi mostri del[G]le mie insicurez[Am]ze
e trasformarli in canzoni come un mi[G]racol[Em]o
[Am] Ah ah [G]ah[Em]
Su [Am]tutta la terra che [G]corre sotto i pie[Am]di
come un mappamondo di pezzi [G]fragili[Em]
c'e' o[Am]gnuno che cerca e [G]cerca la sua id[Am]ea
e insegue la verita' e il suo con[G]trario.[Em]
[Intermezzo 1] 
[cbitarra elettrica con distorsione] 
[Am] [C] [G] [Am] [C]  
 
 e|------------------------|-------------------|
 B|------------------------|-------------------|
 G|------------------------|-------------------|
 D|--7-------5--7--5-4--0--|--2----------------|
 A|------------------------|-------------------|
 E|------------------------|-------------------|

[Am] [C] [G] [Am] [C]  
 
 ---------------------------|---------------------------|
 ---------------------------|---------------------------|
 --2-4-5-7-9-----7--5-7--5--|--4--5--4--2-4--2--0-2--0--|
 ---------------------------|---------------------------|
 ---------------------------|---------------------------|
 ---------------------------|---------------------------|

[Am]  
 
 -------------------|
 -------------------|
 --2----------------|
 -------------------|
 -------------------|
 -------------------|

La [Am]musica fa so[C]gnare vola[G]re ca[Am]pire[C] [G]
la [Am]musica da' la [C]forza [G]di rea[Am]gire[C] [G]
la [Am]musica fa viag[C]giare ma sen[G]za par[Am]tire_[C]iei[G]e___
la [Am]musica fa cap[C]ire cio' che [G]vuoi ca[Am]pir[C]e[G]
[Am]Tutta la banda e' un detonatore
musica a randa con la testa e [F]con il cu[G]ore
[Am]e' mediterranea e corre a sangue caldo
tutta la banda fa musica a r[F]an[G]da
[Intermezzo 2] 
[cbitarra elettrica con distorsione] 
 
 e|-----------------------|-----------------------|
 B|--5---------8--7-5-----|-----------------------|
 G|--------------------7--|--9----7--5---------5--|
 D|-----------------------|------------7----------|
 A|-----------------------|-----------------------|
 E|-----------------------|-----------------------|
 --------------------------|----------------------|
 --5--5--5-------------10--|----------------------|
 ----------7-5-9-----------|--9--7--5-------------|
 --------------------------|-----------7----------|
 --------------------------|----------------------|
 --------------------------|----------------------|

[Am]Il mondo e' a pezzi e i [G]pezzi siamo [Am]noi
in un rompicapo di gesti [G]fragi[Em]li
cer[Am]chiamo la gioia ma la [G]gioia e' dentro di noi[Am]
perche' e' magica la verita' non e' il con[G]trari[C]o[Em]
[qui ci sarebbe un bel riff di chitara sotto, ma non sono
riuscito a trascriverlo]
[Am] [C] la gioia e' [G]dentro di [Am]noi
[Ripete Intermezzo 1] 
La [Am]musica fa so[C]gnare vola[G]re ca[Am]pire[C] [G]
la [Am]musica da' la [C]forza [G]di rea[Am]gire[C] [G]
la [Am]musica fa viag[C]giare ma sen[G]za par[Am]tire_[C]iei[G]e___
la [Am]musica fa cap[C]ire cio' che [G]vuoi ca[Am]pir[C]e[G]
[Am]Tutta la banda e' un detonatore
musica a randa con la testa e [F]con il cu[G]ore
[Am]e' mediterranea e corre a sangue caldo
tutta la banda fa musica a r[F]an[G]da
[B]Vitamina adrenalina [F]ah ah [C]ah
[B]sono il carburante di [F]questa musi[C]ca
[B]Vitamina giu' in cantina [F]ah ah [C]ah
[B]il mio viaggio e' un'indecenza e [F]non finisce q[C]ua.
[Intermezzo 3] 
[Elettrica distorta] 
[questa trascrizione e' un po' meno accurata delle
precedenti ma non sono un grande chitarrista elettrico]
 
 e|----------------------|-------------------------|
 B|--5r------------------|-------------------------|
 G|---------7\5----------|------5------------------|
 D|---------------7r-----|--5-7---7-5----7--7------|
 A|----------------------|-------------------------|
 E|----------------------|-------------------------|
 ------------------------|----------------------------|
 ------------------------|----------------------------|
 ------------------------|----------------------------|
 ------------------------|----------------------------|
 --0--3--4/5r----5r------|--0--3--4/5b7r~-------------|
 ------------------------|----------------------------|

La [Am]musica fa so[C]gnare vola[G]re ca[Am]pire[C] [G]
la [Am]musica da' la [C]forza [G]di rea[Am]gire[C] [G]
la [Am]musica fa viag[C]giare ma sen[G]za par[Am]tire_[C]iei[G]e___
la [Am]musica fa cap[C]ire cio' che [G]vuoi ca[Am]pir[C]e[G]
La [Am]musica fa la [C]musica da'[G]
La [Am]musica fa la [C]musica da'[G]
La [Am]musica fa la [C]musica da'[G]
La [Am]musica fa la [C]musica da'[G]
| Am C G | Am C G | Am C G | Am C G |
[Am] Il mondo e' a pez[C]zi e i pezzi [G]siamo [Am]noi[C] [G]
[Am] Il mondo e' a pez[C]zi e i pezzi [G]siamo [Am]noi[C] [G]
[Am] Col cuore a pez[C]zi e i pezzi [G]siamo [Am]noi[C] [G]
[Am] Il mondo e' a pez[C]zi e i pezzi [G]siamo [Am]noi[C] [G]
[sfumando ad libitum] 
La [Am]musica fa la [C]musica da'[G]
La [Am]musica fa la [C]musica da'[G]
La [Am]musica fa la [C]musica da'[G]
La [Am]musica fa la [C]musica da'[G]

Important: The song above is NOT stored on the Chordie server. The original song is hosted at www.guitaretab.com. Chordie works as a search engine and provides on-the-fly formatting. Chordie does not index songs against artists'/composers' will. To remove this song please click here.

Text color:
Chord color:
Chord grids: 
Font size:    
Page size: 

Am B C Em F G
Rate #3 of 3 versions

Jango Player

Login - add to songbook

SHARE PAGE  



You need to log in to post comments