Guitar Tabs, Chords and Lyrics
Server problems seems to be fixed. Chordie has been experiencing problems with songs disappearing. These issues now seems to be fixed, but still verifying the fix. If you find anything strange, please email admin@chordie.com.


Witch Doctor  The Living End

- The Living End -
WitchDoctor
Tabbed by Mick Fryar
manumick20@yahoo.com
~=slide (as in slide you put on your finger)
p.m=palm mute
s=slide (fret slide)
* A slide is needed for the solo*
* For the intro, it sounds like chris is double
picking!.Wrong, he is using a treble
effects peddel now a strong dip.
 
 -----------------------------------------------------------------------------

Intro: (bass comes in)
 
 e---------------------------------|
 b---------------------------------|
 g-------------------------6---7---|
 d-----------5-----7-5-7-8---8---8-|(x4)
 a-------3-5---6-5-----------------|
 e-3-5-6---------------------------|

/ treble effect peddel..........\
[G]  
 
 e-----------|
 b-----------|
 g-----------|
 d--5-----5--|
 a--5-----5--|
 e--3-----3--|
 e---------------------------------|
 b---------------------------------|
 g-------------------------6---7---|
 d-----------5-----7-5-7-8---8---8-|(once)
 a-------3-5---6-5-----------------|
 e-3-5-6---------------------------|

/ treble effect peddel..........\
[G]  
 
 e-----------|
 b-----------|
 g-----------|
 d--5-----5--|
 a--5-----5--|
 e--3-----3--|
 e---------------------------------|
 b---------------------------------|
 g-------------------------6---7---|
 d-----------5-----7-5-7-8---8---8-|(once)
 a-------3-5---6-5-----------------|
 e-3-5-6---------------------------|

/ treble effect peddel..........\
Verse:
[A#] [G]  
 
 e----------------------------5----5----5----5--|
 b----------------------------5----5----5----5--|
 g-3-3--3-3--3--3-3--3-3------4----4----4----4--|
 d-3-3--3-3--3--3-3--3-3----5-5--5-5--5-5--5-5--|
 a-1-1--1-1--1--1-1--1-1-0--5-5--5-5--5-5--5-5--|
 e--------------------------3-3--3-3--3-3--3-3--|

[A#] [C] [D]  
 
 e----------------------------------------------|
 b----------------------------------------------|
 g-3-3--3-3--3--3-3--3-3--5555555555-7777777777-|
 d-3-3--3-3--3--3-3--3-3--5555555555-7777777777-|
 a-1-1--1-1--1--1-1--1-1--3333333333-5555555555-|
 e----------------------------------------------|

Intro:
(it is played exactly the same except the
last riff goes like)
 
 e----------------------------------|
 b----------------------------------|
 g-------------------------7--------|
 d-----------5-----7-5-7-8---8-7-5--|
 a-------3-5---6-5------------------|
 e-3-5-6----------------------------|

/ treble effect peddel..........\
Verse
Chorus: *may have to strum chords a few more
times than I`ve written.*
[E] [B] [E] [C]  
 
 e------------7-------------------8-------------|
 b---9--------7--------9----------8-------------|
 g-9-9-9-9----8------9-9-9-9------9-------------|
 d-9-9-9-9--9-9-9-9--9-9-9-9--10-10-10----------|
 a-7-7-7-7--9-9-9-9--7-7-7-7--10-10-10----------|
 e----------7-7-7-7-----------8--8--8---8-8-7-5-|

G B (i think Bm sound better though hehe)
 
 e---3----------------------------|
 b---3--------4-------C------D----|
 g---4------4-4-4-4--55555-77777--|
 d-5-5-5-5--4-4-4-4--55555-77777--|
 a-5-5-5-5--2-2-2-2--33333-55555--|
 e-3-3-3-3------------------------|

/ p.m.......\
Intro Riff couple of times
Solo:
[G]  
 
 e--------------------------6-10-9~10-6--------|
 b-----------5~------8-8--8-------------8------|
 g-----------5~----7----------------------9~~--|
 d--5-5-5-5------------------------------------|
 a--5-5-5-5------------------------------------|
 e--3-3-3-3------------------------------------|
 e--------12-11s~12----------------------------9-|
 b-10~10~-----------12s13-------------11----11---|
 g------------------------13s14----------10------|
 d------------------------------14---------------|
 a-----------------------------------------------|
 e-----------------------------------------------|
 e----9-11----11-18~~~~~--10-10-10-11-11-11-10~~--|
 b-11------14-------------10-10-10-11-11-11-10~~s-|
 g------------------------------------------------|
 d------------------------------------------------|
 a------------------------------------------------|
 e------------------------------------------------|

[G]  
 
 e--------------------------------------|
 b--------------------------------------|
 g--------------------------------------|
 d-----------5-5-5-5-5-5-5-5------------|
 a-----------5-5-5-5-5-5-5-5------------|
 e-pickslide-3-3-3-3-3-3-3-3-pickslide--|

[G]  
 
 e-3-3-3-3-3-3-3-3--|
 b-3-3-3-3-3-3-3-3--|
 g-4-4-4-4-4-4-4----|
 d-5-5-5-5-5-5-5----|
 a-5-5-5-5-5-5-5----|
 e-3-3-3-3-3-3-3----|

Bridge:
 
 e--------------------------------------------|
 b--------------------------------------------|
 g--------------------------------------------|
 d-----------5--------------------5-----------|
 a-------3-5---6-5-(x4)-------3-5---6-5-(x4)--|
 e-3-5-6----------------3-5-6-----------------|

/ p.m...........\
slight pause
 
 e----------------------------------|
 b----------------------------------|
 g-------------------------6---7----|
 d-----------5-----7-5-7-8---8---8--|
 a-------3-5---6-5------------------|
 e-3-5-6----------------------------|

/ treble effects peddel..........\
 
 e----------------------------------|
 b----------------------------------|
 g-------------------------7--------|
 d-----------5-----7-5-7-8---8-7-5--|
 a-------3-5---6-5------------------|
 e-3-5-6----------------------------|

/ treble effects peddel.........\
Verse
Chorus
Intro(just riff)(x2)
Outro:
[G]  
 
 e----5----5---------------------------------|
 b----5----5---------------------------------|
 g----4----4---------------------------------|
 d--5-5--5-5---------------------------------|
 a--5-5--5-5---------------------------------|
 e--3-3--3-3---------------------------------|

Tabbed by Mick Fryar,manumick20@yahoo.com
icq me for you comments.

Important: The song above is NOT stored on the Chordie server. The original song is hosted at www.guitaretab.com. Chordie works as a search engine and provides on-the-fly formatting. Chordie does not index songs against artists'/composers' will. To remove this song please click here.

Text color:
Chord color:
Chord grids: 
Font size:    
Page size: 

A# B C D E G
Rate #1 of 3 versions

Jango Player

Login - add to songbook

SHARE PAGE  



You need to log in to post comments