Guitar Tabs, Chords and Lyrics
Major upgrade!! After one year development the new version of Chordie is now online! Please give feedback.


When I Was Six   Lodger

 
 e|-----------------------------------|
 B|-----------------------------------|
 G|-----------------------------------|
 D|-----------------------------------|
 A|-----------------------------------|
 E|-2-2-0-2-5-0-2---------------------|

 


 


 We'll call this Riff Two (extra note is the only difference):


 


 

 
 e|-----------------------------------|
 B|-----------------------------------|
 G|-----------------------------------|
 D|-----------------------------------|
 A|-----------------------------------|
 E|-0-2-2-0-2-5-0-2-------------------|

 


 


 Riff Three (you keep playing 10th while the lyrics are sung):


 


 

 
 e|----------------------------------------|
 B|----------------------------------------|
 G|----------------------------------------|
 D|----------------------------------------|
 A|----------------------------------------|
 E|...-10-10-10-10-10-10-10-10-10-10-10-...|

 


 


 Riff Four:


 


 

 
 e|------------------|
 B|------------------|
 G|------------------|
 D|------------------|
 A|------------------|
 E|-2--2--2--2-------|

 


 


 Chorus (it's not seven times for every note, but you can easily figure out when it


 by listening to the song):


 


 

 
 e|----------------------------------------|
 B|----------------------------------------|
 G|----------------------------------------|
 D|----------------------------------------|
 A|----------------------------------------|
 E|-5-5-5-5-5-5-5-2-2-2-2-2-2-2------------|
 e|----------------------------------------|
 B|----------------------------------------|
 G|----------------------------------------|
 D|----------------------------------------|
 A|----------------------------------------|
 E|-10-10-10-10-10-10-10-5-5-5-5-5-5-5-----|
 e|----------------------------------------|
 B|----------------------------------------|
 G|----------------------------------------|
 D|----------------------------------------|
 A|----------------------------------------|
 E|-2-2-2-2-2-2-2-10-10-10-10-10-10-10-----|
 e|----------------------------------------|
 B|----------------------------------------|
 G|----------------------------------------|
 D|----------------------------------------|
 A|----------------------------------------|
 E|-5-5-5-5-5-5-5-2-2-2-2-2-2-2------------|
 e|----------------------------------------|
 B|----------------------------------------|
 G|----------------------------------------|
 D|----------------------------------------|
 A|----------------------------------------|
 E|-10-10-10-10-10-10-10-------------------|


Important: The song above is NOT stored on the Chordie server. The original song is hosted at www.guitaretab.com. Chordie works as a search engine and provides on-the-fly formatting. Chordie does not index songs against artists'/composers' will. To remove this song please click here.

This song is displayed as text-only. Transposing and tuning is only available for chordpro-songs.
Rate #1 of 4 versions

Login - add to songbook

SHARE PAGE  




You need to log in to post comments