Guitar Tabs, Chords and Lyrics
Server problems seems to be fixed. Chordie has been experiencing problems with songs disappearing. These issues now seems to be fixed, but still verifying the fix. If you find anything strange, please email admin@chordie.com.


Cani sciolti  Los Fastidios

 
 -------------------------------------------------------------------------------

Band: Los Fastidios
Song: Cani Sciolti
Album: Contiamo Su Di Voi! (KOB/Mad Butcher Records)
Transcribed by Andreas Karlsson (Mar 23, 2007)
 
 -------------------------------------------------------------------------------

(n.c.) = no chord
/ = slide up
pm = palm mute
Standard tuning
220 BPM
 
 -------------------------------------------------------------------------------

INTRO:
[B5] [G5] [A5] [F#5] [B5] [G5] [A5] [F#5]  
 
 e|---------------------------------|---------------------------------|
 B|---------------------------------|---------------------------------|
 G|-4---4-4-------------------------|-4---4-4-------------------------| [x2]
 D|-4---4-4-5---5-5-7-7-7-4---4-4-4-|-4---4-4-5---5-5-7-7-7-4---4-4-4-|
 A|-2---2-2-5---5-5-7-7-7-4---4-4-4-|-2---2-2-5---5-5-7-7-7-4---4-4-4-|
 E|---------3---3-3-5-5-5-2---2-2-2-|---------3---3-3-5-5-5-2---2-2-2-|

E5 F#5 G5 A5 (n.c.)
 
 e|---------------------------------|---------------------------------|
 B|---------------------------------|---------------------------------|
 G|---------------------------------|---------------------------------|
 D|-2---2-2---2-2-2-2---2-2-4---5---|-7---7-7---7-7-7-7---------------|
 A|-2---2-2---2-2-2-2---2-2-4---5---|-7---7-7---7-7-7-7---------------|
 E|-0---0-0---0-0-0-0---0-0-2---3---|-5---5-5---5-5-5-5---------------|

VERSE 1:
[B5] [G5]  
 
 e|---------------------------------|---------------------------------|
 B|---------------------------------|---------------------------------|
 G|-4---4---4-4-4---4-4-4-4---4-4---|---------------------------------|
 D|-4---4---4-4-4---4-4-4-4---4-4---|-5---5---5-5-5---5-5-5-5---5-5---|
 A|-2---2---2-2-2---2-2-2-2---2-2---|-5---5---5-5-5---5-5-5-5---5-5---|
 E|---------------------------------|-3---3---3-3-3---3-3-3-3---3-3---|

Vi siete fatti marchiare come capi di bestiame
[A5] [F#5]  
 
 e|---------------------------------|---------------------------------|
 B|---------------------------------|---------------------------------|
 G|---------------------------------|---------------------------------|
 D|-7---7---7-7-7---7-7-7-7---7-7---|-4---4---4-4-4---4-4-4-4---4-4---|
 A|-7---7---7-7-7---7-7-7-7---7-7---|-4---4---4-4-4---4-4-4-4---4-4---|
 E|-5---5---5-5-5---5-5-5-5---5-5---|-2---2---2-2-2---2-2-2-2---2-2---|

Il vostro imperativo adesso occhi chiusi e non pensare
[B5] [G5]  
 
 e|---------------------------------|---------------------------------|
 B|---------------------------------|---------------------------------|
 G|-4---4---4-4-4---4-4-4-4---4-4---|---------------------------------|
 D|-4---4---4-4-4---4-4-4-4---4-4---|-5---5---5-5-5---5-5-5-5---5-5---|
 A|-2---2---2-2-2---2-2-2-2---2-2---|-5---5---5-5-5---5-5-5-5---5-5---|
 E|---------------------------------|-3---3---3-3-3---3-3-3-3---3-3---|

Non veniteci a parlare di campana elettorale
[A5] [F#5] [G5] [A5]  
 
 e|---------------------------------|---------------------------------|
 B|---------------------------------|---------------------------------|
 G|---------------------------------|---------------------------------|
 D|-7---7---7-7-7---7-7-7-7---7-7---|-4---4---4-4-4---4-4-4---5---7---|
 A|-7---7---7-7-7---7-7-7-7---7-7---|-4---4---4-4-4---4-4-4---5---7---|
 E|-5---5---5-5-5---5-5-5-5---5-5---|-2---2---2-2-2---2-2-2---3---5---|

Non avrete i nostri voti non verremo mai a votare
CHORUS:
[F5] [G5] [C5] [A5] [G5]  
 
 e|---------------------------------|---------------------------------|
 B|---------------------------------|---------------------------------|
 G|---------------------------------|-5-5-5-5-5-5-5-5-----------------|
 D|-3-3-3-3-3-3-3-3-5-5-5-5-5-5-5-5-|-5-5-5-5-5-5-5-5-7-7-7-7-7---5---|
 A|-3-3-3-3-3-3-3-3-5-5-5-5-5-5-5-5-|-3-3-3-3-3-3-3-3-7-7-7-7-7---5---|
 E|-1-1-1-1-1-1-1-1-3-3-3-3-3-3-3-3-|-----------------5-5-5-5-5---3---|

Niente bandiere ne partiti ne eroi
F5 G5 C5 (slide fr. B5)
 
 e|---------------------------------|---------------------------------|
 B|---------------------------------|---------------------------------|
 G|---------------------------------|-4/5-5---4/5-5---4/5-5-5---5-5---|
 D|-3-3-3-3-3-3-3-3-5-5-5-5-5-5-5-5-|-4/5-5---4/5-5---4/5-5-5---5-5---|
 A|-3-3-3-3-3-3-3-3-5-5-5-5-5-5-5-5-|-2/3-3---2/3-3---2/3-3-3---3-3---|
 E|-1-1-1-1-1-1-1-1-3-3-3-3-3-3-3-3-|---------------------------------|

Io voglo solo liber - ta
[F5] [G5] [C5] [B5] [A5] [G5]  
 
 e|---------------------------------|---------------------------------|
 B|---------------------------------|---------------------------------|
 G|---------------------------------|-5---5-5-4---4-4-----------------|
 D|-3-3-3-3-3-3-3-3-5-5-5-5-5-5-5-5-|-5---5-5-4---4-4-7---7-7-5---5-5-|
 A|-3-3-3-3-3-3-3-3-5-5-5-5-5-5-5-5-|-3---3-3-2---2-2-7---7-7-5---5-5-|
 E|-1-1-1-1-1-1-1-1-3-3-3-3-3-3-3-3-|-----------------5---5-5-3---3-3-|

Non ce giustizia per i ragazze come noi
[F5] [G5] [C5]  
 
 e|---------------------------------|---------------------------------|
 B|---------------------------------|---------------------------------|
 G|---------------------------------|-5-5-5-5-5-5-5-5-5---------------|
 D|-3-3-3-3-3-3-3-3-5-5-5-5-5-5-5-5-|-5-5-5-5-5-5-5-5-5---------------|
 A|-3-3-3-3-3-3-3-3-5-5-5-5-5-5-5-5-|-3-3-3-3-3-3-3-3-3---------------|
 E|-1-1-1-1-1-1-1-1-3-3-3-3-3-3-3-3-|---------------------------------|

Cani sciolti siamo noi
[Repeat INTRO] 
VERSE 2:
[B5]Siamo figli della strada - [G5]oi!, ska, punk i nostri suoni
[A5]Siamo figli della strada - [F#5]conto le esasperazioni
[B5]Contro tutti i razzismi - [G5]e i fottuti pregiudizi
[A5]Scenderemo nelle strade - [F#5]siamo pronto per gri[G5]dar[A5]e
[Repeat CBORUS] (Niente bandiere, ne partiti, ne eroi ...)
[B5] [G5] [A5] [F#5] [B5] [G5] [A5] [F#5]  
 
 e|---------------------------------|---------------------------------|
 B|---------------------------------|---------------------------------|
 G|-4---4-4-------------------------|-4---4-4-------------------------| [x2]
 D|-4---4-4-5---5-5-7-7-7-4---4-4-4-|-4---2-2-5---5-5-7-7-7-4---4-4-4-|
 A|-2---2-2-5---5-5-7-7-7-4---4-4-4-|-2---2-2-5---5-5-7-7-7-4---4-4-4-|
 E|---------3---3-3-5-5-5-2---2-2-2-|---------3---3-3-5-5-5-2---2-2-2-|

pm: ' ' ' ' ' ' ' ' ' ' ' ' ' ' ' ' ' ' ' ' ' ' ' ' ' '
[Repeat INTRO] 
[Repeat VERSE 1] (Vi siete fatti marchiare ...)
[Repeat CBORUS] (Niente bandiere, ne partiti, ne eroi ...)
[Repeat CBORUS] (Niente bandiere, ne partiti, ne eroi ...)
OUTRO:
[B5] [G5] [A5] [F#5] [B5]  
 
 e|---------------------------------|---------------------------------|
 B|---------------------------------|---------------------------------|
 G|-4---4-4-------------------------|-4-------------------------------|
 D|-4---2-2-5---5-5-7-7-7-4---4-4-4-|-4-------------------------------|
 A|-2---2-2-5---5-5-7-7-7-4---4-4-4-|-2-------------------------------|
 E|---------3---3-3-5-5-5-2---2-2-2-|---------------------------------|
 -------------------------------------------------------------------------------


Important: The song above is NOT stored on the Chordie server. The original song is hosted at www.guitaretab.com. Chordie works as a search engine and provides on-the-fly formatting. Chordie does not index songs against artists'/composers' will. To remove this song please click here.

Text color:
Chord color:
Chord grids: 
Font size:    
Page size: 

A5 B5 C5 F#5 F5 G5
Rate #1 of 2 versions

Jango Player

Login - add to songbook

SHARE PAGE  




You need to log in to post comments